Five Iron Frenzy - Phantom Mullet Chords & Tabs

 

Phantom Mullet Chords & Tabs

Five Iron Frenzy Chords & Tabs

Version: 2 Type: Tab 0 ratings
1 star 2 stars 3 stars 4 stars 5 stars
comments

Phantom Mullet Tab

   
Title: Phantom Mullet (Micah's Solo)
Artist: Five Iron Frenzy
Album: All The Hype That Your Money Can Buy
Tabbed by: Micah Ortega
E-mail: Kris 

This is the official straight from micah's fret board version of the phantom
solo.  Micah was so very nice to send me the tab for the Phantom Mullet solo.
This solo is a little difficult, especially the finger tapping, but it can be
done.  This is for all to enjoy.  Any comments, please use the e-mail above.

here's the first part
------------14--------11--------12--11--14--12--11--------------------------------------
--11--11-------12-------14------------------------------14--12--11----------------------
----------------------------------------------------------------------------13--14------
----------------------------------------------------------------------------------------
----------------------------------------------------------------------------------------
----------------------------------------------------------------------------------------

(bend 16 up to an 18 and play it as a  quick2 string chord)
----------------------------------------------------------------------------------------
----------------------------------------17---------17--------------------------
----------13--14--16--14--13------------16~18------16~18--------------------------------
-------------------------------------------16--14--------------------------------
----------------------------------------------------------------------------------------
----------------------------------------------------------------------------------------

the second part of the solo
------------17-17-17-17-16-16-16-16-14-14-14-14-----------------------------------------
----------------------------------------------------------------------------------------
----------------------------------------------------------------------------------------
----------------------------------------------------------------------------------------
----------------------------------------------------------------------------------------
----------------------------------------------------------------------------------------


the tapped part of the second part of the solo :hint - tap the 21's in parentheses with
the middle finger of your picking hand. 

--14-(16-17-21-17-21-17-16)-14-(16-17-21-17-21-17-16-14)--------------------------------
----------------------------------------------------------------------------------------
----------------------------------------------------------------------------------------
----------------------------------------------------------------------------------------
----------------------------------------------------------------------------------------
----------------------------------------------------------------------------------------


[ Tab from: http://www.guitartabs.cc/tabs/f/five_iron_frenzy/phantom_mullet_tab_ver_2.html ]
---19~21-19~21-19~21-19~21----19~21---16--(17--19)--------------------------------------
----------------------------------------------------------------------------------------
----------------------------------------------------------------------------------------
----------------------------------------------------------------------------------------
----------------------------------------------------------------------------------------
----------------------------------------------------------------------------------------

the descending third part of the solo

--13--13-13-13-13-13-15-----------------------------------------------------------------
------------------------13--13-13-13-13-13-15-10--10-10-10-10-10-13---------------------
----------------------------------------------------------------------------------------
----------------------------------------------------------------------------------------
----------------------------------------------------------------------------------------
----------------------------------------------------------------------------------------

----------------------------------------------------------------------------------------
----------------------------------------------------------------------------------------
-10--10-10-10-10-10-10-10---------------------------------------------------------------
----------------------------------------------------------------------------------------
----------------------------------------------------------------------------------------
----------------------------------------------------------------------------------------


-13-12-10-------------------------------------------------------------------------------
----------13-11-10-----------13-11-10---------------------------------------------------
-------------------12-10-9---------------12-10-9----------------------------------------
---------------------------------------------------10-----------------------------------
----------------------------------------------------------------------------------------
----------------------------------------------------------------------------------------

the pentatonic climb out of the solo "part four"
-----------------------------------------------------------------------------------------
-----------------------------------------------------------------------------------------
-----------------------10-12/14--14-14-14-14-14-14-14/16-16/19-19~21---------------------
----------------10-12--------------------------------------------------------------------
---------10-12---------------------------------------------------------------------------
5/10-13----------------------------------------------------------------------------------


these things 	~ mean to bend the note to whatever is the next written note.
these things 	( ) means that every note inside those should be tapped and not picked.
these things 	/ means to slide from one note to the next written note.

here ya go try this one out and let me know if it wraps wierd k?
micah!
Comments