Five Iron Frenzy - Milestone Chords & Tabs

 

Milestone Chords & Tabs

Five Iron Frenzy Chords & Tabs

Version: 2 Type: Bass Tab 0 ratings
1 star 2 stars 3 stars 4 stars 5 stars
comments

Milestone Bass Tab

ARTIST: Five Iron Frenzy
ALBUM: Upbeats and Beatdowns
SONG: Milestone
Tabbed by VIC



INTRO:
        x2                 x2                      x3
G:----------------*------------------*-------------------------*-
D:----------------*------------------*-------------------------*-
A:---5r-----5r-7--*---5>-----5>-7>---*-----5>----5>--5-4-------*-
E:------5---------*------5>----------*--5>----7>----------7-5--*-

G:----------------I
D:----------------I
A:------5>--7>----I
E:---5>-----------I

VERSE:
[ Tab from: http://www.guitartabs.cc/tabs/f/five_iron_frenzy/milestone_btab_ver_2.html ]
G:-------------------------------------------------------------------
D:-------------------------------------------------------------------
A:-------454-------47-77-7------77-7-----------1-4-----1-4-----4-7---
E:--55-5----5--55-5--------77-7------77-54-22-2----22-2----55-5------

G:------------I
D:------------I      x2 (whole verse)
A:--55-5------I
E:------7-54--I

CHORUS:

G:-----------------------------I
D:----4-7----------4-7---------I
A:--5-----7-77-4-5-----7-5-4-5-I
E:-----------------------------I

BRIDGE:

G:--------------------------------------------I
D:--------------------------------------------I
A:----------------5555-557777-----------------I
E:--2222-225555-55----------------------------I

ORDER:

intro (all riffs)
verse 
Chorus
verse
Chorus
intro (the 3rd riff)
*guitar solo*
bridge
intro (riff 1 x2)
intro (riff 2 till end)

Any corrections, please send to felixvictorlucas@compuserve.com

PS does anyone have the tab for "MY EVIL PLAN TO SAVE THE WORLD"
Comments