Five Iron Frenzy - Giants Chords & Tabs

 

Giants Chords & Tabs

Five Iron Frenzy Chords & Tabs

Version: 1 Type: Bass Tab 0 ratings
1 star 2 stars 3 stars 4 stars 5 stars
comments

Giants Bass Tab

Song: Giants
Artist: Five Iron Frenzy
Album: All The Hype That Money Can Buy
Corrected by: Stephen Toye (sk8r_ska55@hotmail.com)
Orrigionally tabbed by: Stephen Toye

Intro:
G---------------------
D---------------------
A-0---1---0---1-2-3-4-
E---1---1---1---------

Verse:
G---------------------------------------------
D---------------------------------------------
A-0---1-2-2-3---3-4-5-6-7---7-6-5-4---4-3-2-1-
E---1---------3-----------7---------4---------

G---------------------------------------------
D---------------------------------------------
A-0---1-2-2-3---3-4-5-6-7---7-6-5-4---4-2-3-5-
E---1---------3-----------7---------4---------

Pre-Chorus:
G---------------------------------------
D-1-------2-----------------------------
A---2---2---2---2---5-5-2---2-----------
E-----4-------4---2-------2---4-4--5--7-
[ Tab from: http://www.guitartabs.cc/tabs/f/five_iron_frenzy/giants_btab.html ]
Chorus:
G-------------------------------------
D-------------------------------------
A-3-----5-4-----3---4-6-5-------------
E---3-3-----2-1---3-------5-4-2-2-3-6-

G---------------------------------
D---------------------------------
A-2---5-3-------------------------
E---3-----5-3-1-3-4-6-8-10-11--12-
   (2nd time play (4-----2-----0) instead

Bridge:
G----------------------------------------------------------------------
D----------------------------------------------------------------------
A-----------------------0-1-1-1-1-2-2-1-0---0-2---0-2---0-1----0-1-0---
E-0-0-0-1-2-2-2-1-0-1-2-------------------2-----3-----2-----2-1------0-

Outro:
G---------------------------------------------
D----------------------------1----------------
A-3-----0--------4--0-----3-----0--0----------
E----3-----1--3--------2--------------4--2--0-

End note: A-3-

Comments