Five Iron Frenzy - Get Your Riot Gear Chords & Tabs

 

Get Your Riot Gear Chords & Tabs

Five Iron Frenzy Chords & Tabs

Version: 2 Type: Tab 0 ratings
1 star 2 stars 3 stars 4 stars 5 stars
comments

Get Your Riot Gear Tab

-----------------------------------------------------------------------------
			    Get Your Riot Gear - Five Iron Frenzy
-----------------------------------------------------------------------------
Tabbed by: Cari
Email: cberry11@aol.com

Tuning: Standard EADGBE
[ Tab from: http://www.guitartabs.cc/tabs/f/five_iron_frenzy/get_your_riot_gear_tab_ver_2.html ]
e|-------7--------------------7-10-7--------------7-------------------------|
B|--10-7---10---10-7-6--10-7----------10-7---10-7----10---10-7-6-10-7-10----|
G|-----------------------------------------------------------------------10-|
D|--------------------------------------------------------------------------|
A|--------------------------------------------------------------------------|
E|--------------------------------------------------------------------------|

e|----------------------|
B|--7----6--------------|
G|----7--6--------------|
D|----------------------|
A|----------------------|
E|----------------------|

Thats the way i figured it out...Enjoy.
Comments