Five Iron Frenzy - Blue Comb 78 Chords & Tabs

 

Blue Comb 78 Chords & Tabs

Five Iron Frenzy Chords & Tabs

Version: 1 Type: Bass Tab 0 ratings
1 star 2 stars 3 stars 4 stars 5 stars
comments

Blue Comb 78 Bass Tab

   
"Blue Comb '78"
 Five Iron Frenzy
 Our Newest Album Ever!
 Lyrics: Reese Roper
 Music: Scott Kerr and Dennis Culp
 (c) 1997 Sarabellum Records
 Tabbed by: Johnny Angel (StarFlyr99@aol.com)

 --Intro and Chorus--              
    E       F#      B              2x
G-|---------------------------------|
D-|*-------------------------------*|
A-|*-------------------------------*|
E-|-0-0-0-0-2-2-2-2-7-7-7-7-7-7-7-7-|
    E       F#      A       E   F#
G-|---------------------------------|
D-|---------------------------------|
A-|---------------------------------|
E-|-0-0-0-0-2-2-2-2-5-5-5-5-7-7-2-2-|
    E       F#      B
G-|---------------------------------|
D-|---------------------------------|
A-|---------------------------------|
E-|-0-0-0-0-2-2-2-2-7-7-7-7-7-7-7-7-| 
[ Tab from: http://www.guitartabs.cc/tabs/f/five_iron_frenzy/blue_comb_78_btab.html ]
 --Verse--
    B       A#  F#  E
G-|---------------------------------|
D-|---------------------------------|
A-|-2-2-2-2-1-1---------------------|
E-|-------------2-2-0-0-0-0-0-0-0-0-|
    B       A#  E   F#
G-|---------------------------------|
D-|---------------------------------|
A-|-2-2-2-2-1-1---------------------|
E-|-------------0-0-2-2-2-2-2-2-2-2-|
    G#              E
G-|---------------------------------|
D-|---------------------------------|
A-|-----------------7-7-7-7-7-7-7-7-|
E-|-4-4-4-4-4-4-4-4-----------------|
    A               F#
G-|---------------------------------|
D-|---------------------------------|
A-|---------------------------------|
E-|-5-5-5-5-5-5-5-5-2-2-2-2-2-2-2-2-|

 Play Chorus

 --Bridge--
    G#      B       E       F#
G-|---------------------------------|
D-|---------------------------------|
A-|---------2-----------------------|
E-|-4---------------0-------2-------|

 --"Driving down the road..."--
    B               G#
G-|---------------------------------|
D-|---------------------------------|
A-|-2-2-2-2-2-2-2-2-----------------|
E-|-----------------4-4-4-4-4-4-4-4-|
    E               B
G-|---------------------------------|
D-|---------------------------------|
A-|---------------------------------|
E-|-0-0-0-0-0-0-0-0-2-2-2-2-2-2-2-2-|
    B               G#
G-|---------------------------------|
D-|---------------------------------|
A-|-2-2-2-2-2-2-2-2-----------------|
E-|-----------------4-4-4-4-4-4-4-4-|
    A               B
G-|---------------------------------|
D-|---------------------------------|
A-|---------------------------------|
E-|-5-5-5-5-5-5-5-5-2-2-2-2-2-2-2-2-|

 Play chorus
Comments