Five Iron Frenzy - Anthem Chords & Tabs

 

Anthem Chords & Tabs

Five Iron Frenzy Chords & Tabs

Version: 1 Type: Bass Tab 0 ratings
1 star 2 stars 3 stars 4 stars 5 stars
comments

Anthem Bass Tab

This is "Anthem" by Five Iron Frenzy
Song  :    Anthem
Artist:    Five Iron Frenzy
Album :	   Upbeats and Beatdowns
Tab By:    Skankordie (the tamest rudegirl)
E-Mail:    tesalee1@jps.net

Order of operations:
intro, verse, chorus, verse, chorus, bridge1, bridge 2,
chorus, bridge1

Intro:

G:----------------------------
D:--0------------0------------
A:-----2-----0------2-----0---
E:--------3------------3------

Verse:

G:-----------------------------------
D:--0---------0----------------------  (repeat)
A:--------0-2---4-2---5-4-2-0-0-2-4--
E:----2-3-----------3----------------

Chorus:
[ Tab from: http://www.guitartabs.cc/tabs/f/five_iron_frenzy/anthem_btab.html ]
G:----------------------------------------
D:---------------2------------------------
A:------5-2-0------4------5-2-0---0---0---
E:--3-----------------3-------------2---4-

G:------------------------------------
D:---------------2--------------------
A:------5-2-0------4------5-2-0-------
E:--3-----------------3---------------

Bridge1:

G:------------------------------------------------
D:--0--0----------------------0--0---------------- (repeat)
A:--------2---2--2--0-0---0---------2---2--2-0----
E:----------3-----------4-------------3-----------

Bridge2:

G:------------------------
D:------------------------  (repeat a lot)
A:--5555------2222----44--
E:-------5555------55-----

The last note in the entire song is:

D:--0-- (wow)

This was the first bass tab I've written... how'd I do?
Got any corrections?  I need em.
Want an epal?  Here I am.
And shtuff.  Or something. 
Comments