Five Iron Frenzy - A Flowery Song Chords & Tabs

 

A Flowery Song Chords & Tabs

Five Iron Frenzy Chords & Tabs

Version: 3 Type: Bass Tab 0 ratings
1 star 2 stars 3 stars 4 stars 5 stars
comments

A Flowery Song Bass Tab

   
-------------------------------------------------------------------------------
			     A Flowery Song - Five Iron Frenzy
-------------------------------------------------------------------------------

Tabbed By : Jacob Bartlett
e-mail: acobjoe@subpatch.com

Tuning: EADG

Intro: (0:00)
G|------------------|-----------------|
D|--6-6----------4--|--6-6----------4-|
A|-7---76-6-4-46--6-|-7---76-6-4-46---|
E|-------7-5----7---|-------7-5----7--|x3

Chorus:(0:18)
G|------------------|
D|------------------|
A|-----4444---0020--|
E|-0000----222----4-|x4

Verse 1:(0:31)
G|------------------|-----------------|
D|--6-6----------4--|--6-6----------4-|
A|-7---76-6-4-46--6-|-7---76-6-4-46---|
E|-------7-5----7---|-------7-5----7--|x4

Pre-Chorus:(0:54)
G|------------------|
D|------------------|
A|---74-4----96-6---|
E|-5---5-57-7--7-76-|x4

Chorus:(1:08)
G|------------------|
D|------------------|
A|-----4444---0020--|
E|-0000----222----4-|x8
[ Tab from: http://www.guitartabs.cc/tabs/f/five_iron_frenzy/a_flowery_song_btab_ver_3.html ]
Verse 2:(1:32)
G|------------------|-----------------|
D|--6-6----------4--|--6-6----------4-|
A|-7---76-6-4-46--6-|-7---76-6-4-46---|
E|-------7-5----7---|-------7-5----7--|x4

Pre-Chorus:(1:57)
G|------------------|
D|------------------|
A|---74-4----96-6---|
E|-5---5-57-7--7-76-|x4

Chorus:(2:09)
G|------------------|
D|------------------|
A|-----4444---0020--|
E|-0000----222----4-|x8

Bridge 1:(2:34)
G|-----------------|---------|
D|-----------------|---------|
A|----------96-6---|---------|
E|-55-5567-7--7-76-|-55-5567-|First part x3, then second part.

Trombone Solo:(2:58)
G|-------------------|---------------------|
D|-----2222----------|----2222-------------|
A|-2-2-----4---40000-|-2-2----4---40---0-2-|
E|-------------------|---------------------|

(3:12)
G|------------------|-----------------|
D|--6-6----------4--|--6-6----------4-|
A|-7---76-6-4-46--6-|-7---76-6-4-46---|
E|-------7-5----7---|-------7-5----7--|x2

Chorus:(3:25)
G|------------------|
D|------------------|
A|-----4444---0020--|
E|-0000----222----4-|x4

End On:

G|---|
D|---|
A|---|
E|-0-|
Comments