Five For Fighting - Superman Chords & Tabs

 

Superman Chords & Tabs

Five For Fighting Chords & Tabs

Version: 6 Type: Tab 0 ratings
1 star 2 stars 3 stars 4 stars 5 stars
comments

Superman Tab

10 is not 10 fret it means first fret then 0 straight after each other, it is
the same for all the others, none of them go past the 8th fret.  Sorry, if it
is to confusing. 

e|00------|--------|10------|--------|00------|--------|10------|
B|---1---3|--------|---1-3-3|--------|---1---3|-------1|---1-3-3|
G|------0-|--------|--------|--------|------0-|--------|--------|
D|--------|--------|--------|--------|--------|--------|--------|
A|--------|--------|--------|--------|--------|--------|--------| 
E|--------|--------|--------|--------|--------|--------|--------| 


e|------03|------03|--------|-10----1|0-------|-----0--|----|-1------| 
B|---113--|---113--|-----1-1|---1----|-1--13-1|-------3|-0--|--------|
G|--------|--------|---02---|------3-|---2----|-2------|----|--------|
D|--------|--------|--------|--------|--------|--------|----|--------|
A|--------|--------|--------|--------|--------|--------|----|--------|
E|--------|--------|--------|--------|--------|--------|----|--------|

e|--------|10------|--------|-1-0----|--------|-1-0----|-------1|
B|--------|---1-3-3|--------|----13-3|--------|----1---|------1-|
G|-------0|--------|--------|--------|--------|------00|-----0--|
D|--------|--------|--------|--------|--------|--------|--------|
A|--------|--------|--------|--------|--------|--------|--------|
E|--------|--------|--------|--------|--------|--------|--------|

e|-0------|------03|------03|-------1|-0-----1|0-----03|------03|
B|---31--3|3--113--|---113--|-----1--|---11---|-1-113--|---113--|
G|--------|--------|--------|----2---|------2-|--------|--------| 
D|--------|--------|--------|--------|--------|--------|--------|
A|--------|--------|--------|--------|--------|--------|--------|
E|--------|--------|--------|--------|--------|--------|--------|


e|-------1|-0-----1|0-------|--------|----|--------|--------|--------|
B|------1-|---11---|-1-113-1|1-------|30--|1-------|--------|---000-1|
G|-----2--|------2-|--------|--------|----|--------|-------2|2-------|
D|--------|--------|--------|--------|----|--------|--------|--------|
A|--------|--------|--------|--------|----|--------|--------|--------|
E|--------|--------|--------|--------|----|--------|--------|--------|

e|-0-1-0-0|---578--|-------0|-0-0----|--------|--------|--------|
B|--------|--------|-----11-|----311-|----11-1|--------|--------|
G|--------|-------7|--------|-------2|--------|-2-0----|---2-200|
D|--------|--------|--------|--------|--------|--------|--------|
A|--------|--------|--------|--------|--------|--------|--------|
E|--------|--------|--------|--------|--------|--------|--------|
[ Tab from: http://www.guitartabs.cc/tabs/f/five_for_fighting/superman_tab_ver_6.html ]
e|--------|10------|--------|13-0----|--------|10------|-------1|
B|--------|---1----|--------|------1-|--------|---1--13|------1-|
G|--------|------00|--------|-------3|--------|--------|-----2--|
D|--------|--------|--------|--------|--------|--------|--------|
A|--------|--------|--------|--------|--------|--------|--------|
E|--------|--------|--------|--------|--------|--------|--------|

e|-3-0----|------03|-------0|3-------|-10----1|-0----03|-------0|
B|-----1-1|---113--|--111-3-|-----1-1|---11---|---113--|---1113-|
G|--------|--------|--------|----2---|-----00-|--------|--------|
D|--------|--------|--------|--------|--------|--------|--------|
A|--------|--------|--------|--------|--------|--------|--------|
E|--------|--------|--------|--------|--------|--------|--------|

e|3----1-1|-10----1|0-------|--------|--------|--------|--------|
B|----2---|---1----|-1-13111|-------3|---13-11|--------|-1-13111|
G|--------|------2-|--------|--------|--------|-2------|--------|
D|--------|--------|--------|--------|--------|--------|--------|
A|--------|--------|--------|--------|--------|--------|--------|
E|--------|--------|--------|--------|--------|--------|--------|

e|--------|---0-1--|-0------|------03|-------0|3-------|--------|
B|------13|--------|---1----|---113--|---1113-|---33333|--3331-1|
G|--------|--------|--------|--------|--------|--------|--------|
D|--------|--------|--------|--------|--------|--------|--------|
A|--------|--------|--------|--------|--------|--------|--------|
E|--------|--------|--------|--------|--------|--------|--------|

e|------03|-------0|3----0--|--1-----|3--0----|--------|--------|
B|---113--|---1113-|---33--3|--------|------1-|--------|----11-3|
G|--------|--------|--------|--------|--------|--------|--------|
D|--------|--------|--------|--------|--------|--------|--------|
A|--------|--------|--------|--------|--------|--------|--------|
E|--------|--------|--------|--------|--------|--------|--------|

e|--------|0-------|--------|
B|--1-----|--3-----|1-------|
G|----20--|--------|--------|
D|--------|--------|--------|
A|--------|--------|--------|
E|--------|--------|--------|

I can't stand to fly
I'm not that naive
I'm just out to find
The better part of me

I'm more than a bird
I'm more than a plane
More than some pretty face beside a train
And it's not easy to be me

Wish that I could cry
Fall upon my knees
Find a way to lie
'Bout a home I'll never see

It may sound absurd
But don't be naive
Even heroes have the right to bleed
I may be disturbed
But won't you concede
Even heroes have the right to dream
it's not easy to be me

Up, up and away, away from me
Well it's alright
You can all sleep sound tonight
I'm not crazy or anything

I can't stand to fly
I'm not that naive
Men weren't meant to ride
With clouds between their knees

I'm only a man in a silly red sheet
Digging for kryptonite on this one way street
Only a man in a funny red sheet
Looking for special things inside of me, inside of me
Inside of me, yeah inside of me, inside of me

I'm only a man in a funny red sheet
I'm only a man looking for a dream
I'm only a man in a funny red sheet
And it's not easy
It's not easy to be me
Comments