Five For Fighting - Superman Chords & Tabs

 

Superman Chords & Tabs

Five For Fighting Chords & Tabs

Version: 3 Type: Tab 0 ratings
1 star 2 stars 3 stars 4 stars 5 stars
comments

Superman Tab

-1-0-------1-0-------1-0-------0-1-0-----------0-1-3-
-----1---------1-3-3-----1---3-------1---3-0-0-------
-------0-0-----------------0-----------2-------------
-----------------------------------------------------
-----------------------------------------------------
-----------------------------------------------------

-----0-1-3--
-0-0--------
------------
------------
------------
------------

That is mostly it. This isn't the shit he plays in the back ground, but what he actually sings...dunno though...gettin kinda late...all tab the rest later. BLINK RULES!!!!
[ Tab from: http://www.guitartabs.cc/tabs/f/five_for_fighting/superman_tab_ver_3.html ]
Comments