Five For Fighting - Superman Chords & Tabs

 

Superman Chords & Tabs

Five For Fighting Chords & Tabs

Version: 2 Type: Tab 0 ratings
1 star 2 stars 3 stars 4 stars 5 stars
comments

Superman Tab

   
Five for fighting
superman

this song is so intense
hope u enjoy

Intro:
---------------------------------------------------
-----1--1-----3--3----1--1--------1--1---3--3---1-1
-----0--0-----0--0----0--0--------0--0---0--0---0-0
---------------------------------------------------
--3---------------------------0--------------------
---------------------------------------------------

-8--------8-----------7---------7----------5---------5---------
-8-8------8--8--------8--8------8--8-------8--8------8--8------
---------------------------------------------------------------
---------------------------------------------------------------
---------------------------------------------------------------
---------------------------------------------------------------
[ Tab from: http://www.guitartabs.cc/tabs/f/five_for_fighting/superman_tab_ver_2.html ]
-7------------7--------------------------------------------------
-8--8----------8---8---------------------------------------------
-----------------------------------------------------------------
-----------------------------------------------------------------
-----------------------------------------------------------------
-----------------------------------------------------------------

verse:

   c      G      Am     F
----------3--------------------
---1------3-------1-----1------
------------------2-----2------
---2--------------2-----3------
---3------2--------------------
----------3--------------------

Chorus:

             c       G         Am      F        

" i'm only a man .......................
             c       G         c

"and its not easy .........

Bridge:

Am	   G		F	    Am

Up, up ahead...away from me
	     D		 Am			  D
It's all right...you can all sleep sound tonight

	    F		     G
I'm not crazy...or anything...

thats all i got ........
Comments