Five For Fighting - Easy Tonight Chords & Tabs

 

Easy Tonight Chords & Tabs

Five For Fighting Chords & Tabs

Version: 1 Type: Tab 0 ratings
1 star 2 stars 3 stars 4 stars 5 stars
comments

Easy Tonight Tab

   
Intro:

    A2      |    Bsus   |      A2     |  E
[ Tab from: http://www.guitartabs.cc/tabs/f/five_for_fighting/easy_tonight_tab.html ]
e|--11--12--7-----7--7-----11--12--7-----5--5--4---------|
B|------------------------------------------------5------|
G|-------------------------------------------------------|
D|-------------------------------------------------------|
A|-------------------------------------------------------|
E|-------------------------------------------------------|

    A2      |    Bsus   |      A2     |  E

e|---------------------------------------0---------------|
B|---------------------------------------0---------------|
G|--8--9--4-----4--4-----8--9--4-----2---1---------------|
D|---------------------------------------2---------------|
A|---------------------------------------2---------------|
E|---------------------------------------0---------------|
Comments