Five For Fighting - 100 Years Chords & Tabs

 

100 Years Chords & Tabs

Five For Fighting Chords & Tabs

Version: 2 Type: Tab 0 ratings
1 star 2 stars 3 stars 4 stars 5 stars
comments

100 Years Tab

--15--15--7--8--8--7--8--10--15--15--7--8--8--7--8--10--8--7--|
--------------------------------------------------------------|
--------------------------------------------------------------|
--------------------------------------------------------------|
--------------------------------------------------------------|
--------------------------------------------------------------|

--15--15--10--7--7--8--10--12--7--7--7--7--5--3--2--3--|
-------------------------------------------------------|
-------------------------------------------------------|
-------------------------------------------------------|
-------------------------------------------------------|
-------------------------------------------------------|
[ Tab from: http://www.guitartabs.cc/tabs/f/five_for_fighting/100_years_tab_ver_2.html ]
--15--15--7--8--8--7--8--10--15--15--7--8--8--7--8--10--8--7--|
--------------------------------------------------------------|
--------------------------------------------------------------|
--------------------------------------------------------------|
--------------------------------------------------------------|
--------------------------------------------------------------|

--15--15--10--7--7--8--10--12--7--7--7--7--5--7--10-------7--|
------------------------------------------------------7---8--|
-------------------------------------------------------------|
-------------------------------------------------------------|
-------------------------------------------------------------|
-------------------------------------------------------------|
Comments