Five For Fighting - 100 Years Chords & Tabs

 

Five For Fighting Chords & Tabs

Version: 1 Type: Bass Tab 0 ratings
1 star 2 stars 3 stars 4 stars 5 stars
comments

100 Years Bass Tab

This is my first tab... so here goes.
Rate it if you think it's any good.


I'm 22 for a moment...
|---------------------------------------------------------------------|
|-------------------------------0-------------------------------------|
|--------------3---------0------------------------------0----3-3------|
|--3-----------------------------------3--------0---------------------|

15 There's still time for you...
|---------------------------------------------------------------------|
|--------------0----------------0-------------0-------2---0-----------|
|------------------3----------------3------------3------------3-------|
|--3-------------------3----------------3-----------------------------|


When you only got a hundred years to live...


|------------------------------|
|---------2--0---------2--0----|
|-2--3-----------2--3----------|
|------------------------------|

I'm Thirty Three for a moment...
|------------------------------------------------------------------|
|----------------------00-0-----------------------00-0-------------|
|--------22-2---00-0-----------------------00-0--------------------|
|--33-3----------------------33-3---00-0---------------------------|

I'm 45 for a moment...
|------------------------------------------------------------------|
|----------------------00-0-----------------------00-0-------------|
|--------22-2---00-0-----------------------00-0--------------------|
|--33-3----------------------33-3---00-0---------------------------|

Fifteen there's still time for you...
[ Tab from: http://www.guitartabs.cc/tabs/f/five_for_fighting/100_years_btab.html ]
|-----------------------------------------------------------------|
|---------0------------------0-----------------0-0--0-------------|
|------------3------------------3--------------------3-3-3-33-3---|
|--3---------------3------------------00-0----0-------------------|

Fifteen I'm All right with you...

|----------------------------------------------------------------|
|---0-------------0-------2----0---------------------------------|
|------3-------------3-------------3-----------------------------|
|---------3------------------------------------------------------|

Half-Time goes by...

|------------------------------------------------------------------|
|----------0-----0-----------32---------0-------------------------|
|---3-----3----------------03--032-3---3---------------------------|
|-----------------0------01--------------------3-------------------|

Rest during I'm 99 

15 there's still time for you...

|--------------------------------------------------------------------|
|---------0-----------------0---------------0-----------0------------|
|-------------3----------------3---------------3-----------3---------|
|33-3-------------3-----------------3--------------3----------------|


Everyday's a new day...

|--------------------------------------------------------------------|
|---------0-----------------0---------------0------------------------|
|-------------3----------------3---------------3-------0-0-0-0-------|
|33-3-------------33-3--------------33-3-----------33-3-3-3-3-3------|

Fifteen There's still time for you...

|--------------------------------------------------------------------|
|--------00-0------------------------00-0-------0--------------------|
|----------------------33-3---------------------------3....----------|
|33-3-----------00-0-----------33-3---------0------------------------|

Don't play during piano outro


There you have it. It's as close as i could get. have fun!

israel
Comments