Five For Fighting - 100 Year Chords & Tabs

 

100 Year Chords & Tabs

Five For Fighting Chords & Tabs

Version: 1 Type: Tab 0 ratings
1 star 2 stars 3 stars 4 stars 5 stars
comments

100 Year Tab

Tabs that I found easy to play

(intro)
E---3--3-------------3--3-----------------3-3-------------0----------|
B--------0-1-1-0-1-3------0-1-1-0-1-3-1-0-----3-0-0-0-1-3--0-0-0-0---|
G------------------------------------------------------------------2-|
D--------------------------------------------------------------------|
A--------------------------------------------------------------------|
E--------------------------------------------------------------------|

that is the intro to the song and the first verso pretty much goes the same
[ Tab from: http://www.guitartabs.cc/tabs/f/five_for_fighting/100_year_tab.html ]
3-3-------------3-3-----------------3-3-----------0---------|
 -- 0-1-1-0-1-3-----0-1-1-0-1-3-1-0----3-0-0-0-1-3--0-0-0---|
----------------------------------------------------------2-|
------------------------------------------------------------|
------------------------------------------------------------|
------------------------------------------------------------|

chorus:

-------7-5-5-5-5-3-3-7-5-5-5-5-3-3--7-----------0--------------------------|
-----------------------------------3--3-0-0-1-3---0--------------0---------|
----------------------------------------------------2-0-0-2-2-2----2-0-0---|
-------------------------------------------------------------------------4-|
---------------------------------------------------------------------------|
---------------------------------------------------------------------------|
Comments