Five - Until The Time Is Through Chords & Tabs

 

Until The Time Is Through Chords & Tabs

Five Chords & Tabs

Version: 2 Type: Bass Tab 0 ratings
1 star 2 stars 3 stars 4 stars 5 stars
comments

Until The Time Is Through Bass Tab

FIVE - "Until The Time Is Through" - Bass Tab

Common Time(4/4)
Standard Tuning(EADG)

INTRO:
|---------|---------|---------|------------|
|---------|---------|---------|------------|
|-r-e-s-t-|-r-e-s-t-|---------|-------9----|
|---------|---------|-8-------|-10-12---12/|
  1 2 3 4   1 2 3 4   1 2 3 4   1  2  3 4


VERSE:
                                                             (x2)
|----------------|---------------|---------------|---------------|
|*---------------|---------------|---------------|--------------*|
|*---------------|---------------|-3-r-3-3-3-r-3-|-5-r-5-r-5-5--*|
|--3-r-3-3-3-r-3-|-2-r-2-2-2-r-2-|---------------|-------------2-|
   1 2 & 3 & 4 &   1 2 & 3 & 4 &   1 2 & 3 & 4 &   1 2 & 3 & 4 &


BRIDGE:
|---------------|---------------|---------------|-----------|
|---------------|-2-r-2-r-2-----|---------------|-----------|
|-2-2-r-2-2-2-r-|-----------3-2-|-0---0-2-2---2-|-3---3-5---|
|---------------|---------------|---------------|-----------|
  1 & 2 & 3 & 4   1 2 & 3 & 4 &   1 2 & 3 & 4 &   1 2 & 3 4


CHORUS:
                                                            (x2)
|------------------|-----------------|---------------|----------|
|*-----------------|-----------------|---------------|---2-4---*|
|*-----------------|-----------------|-3-r-3-3-3-r-3-|-5-----5-*|
|--3-3-r-3-3-3-r-3-|-2-2-r-2-2-2-r-2-|---------------|----------|
   1 & 2 & 3 & 4 &   1 & 2 & 3 & 4 &   1 2 & 3 & 4 &   1 2 3 4

|---------------|---------------|---------------|---------------|
|---------------|-2-r-2-r-2-----|---------------|---------------|
|-2-2-r-2-2-2-r-|-----------3-2-|-0---0-2-2---2-|-5-r-5-r-5-5---|
|---------------|---------------|---------------|-------------5-|
  1 & 2 & 3 & 4   1 2 & 3 & 4 &   1 2 & 3 & 4 &   1 2 & 3 & 4 &

|-----------------|---------------|
|-----------------|---------------|
|-----------------|-3-3-r-3-5-5-5-|
|-3-3-r-3-3-3-r-3-|---------------|
  1 & 2 & 3 & 4 &   1 & 2 & 3 & 4 

[ Tab from: http://www.guitartabs.cc/tabs/f/five/until_the_time_is_through_btab_ver_2.html ]
PRE-VERSE 2:
|-----------------|-----------------|---------------|---------|
|-----------------|-----------------|---------------|---2-4---|
|-----------------|-----------------|-3-r-3-3-3-r-3-|-5-----5-|
|-3-3-r-3-3-3-r-3-|-2-2-r-2-2-2-r-2-|---------------|---------|
  1 & 2 & 3 & 4 &   1 & 2 & 3 & 4 &   1 2 & 3 & 4 &   1 2 3 4


MIDDLE EIGHT:
|-----------------|--------|---------|---------|---------|
|-2-2-2-2-2-2-----|--------|---------|-----1---|-2-------|
|-------------5-5-|-4------|-5-------|-2-------|---------|
|-----------------|--------|---------|---------|---------| 
  1 & 2 & 3 & 4 &   1 2 3 4  1 2 3 4   1 2 3 4   1 2 3 4

                            (x4)
|---------|---------|-----------|
|---------|---------|*---------*|
|-4-------|-5-------|*-r-e-s-t-*|
|---------|---------|-----------|
  1 2 3 4   1 2 3 4    1 2 3 4

END:
                                                           (x4)
|------------------|-----------------|---------------|----------|
|*-----------------|-----------------|---------------|---4-6---*|
|*-----------------|-----------------|-5-r-5-5-5-r-5-|-7-----7-*|
|--5-5-r-5-5-5-r-5-|-4-4-r-4-4-4-r-4-|---------------|----------|
   1 & 2 & 3 & 4 &   1 & 2 & 3 & 4 &   1 2 & 3 & 4 &   1 2 3 4

|---------------|---------------|---------------|---------------|
|---------------|-4-r-4-r-4-----|---------------|-2-r-2-r-2-2---|
|-4-4-r-4-4-4-r-|-----------5-4-|-2---2-4-4---4-|-------------2-|
|---------------|---------------|---------------|---------------|
  1 & 2 & 3 & 4   1 2 & 3 & 4 &   1 2 & 3 & 4 &   1 2 & 3 & 4 &

|---------------|---------|---------|---------|---------|
|---------------|---------|---------|-----2---|---------|
|---------------|-5-r-5-7-|---------|-5-------|-0-------|
|-5-5-r-5-5-5-r-|---------|-2-------|---------|---------|
  1 & 2 & 3 & 4   1 2 3 4   1 2 3 4   1 2 3 4   1 2 3 4


By: Johari Taylor
E-mail: viking@powerup.com.au
More Bass Tabs: http://www.powerup.com.au/~viking/basstab.htm
Comments