Five - If Ya Gettin Down Chords & Tabs

 

If Ya Gettin Down Chords & Tabs

Five Chords & Tabs

Version: 2 Type: Bass Tab 0 ratings
1 star 2 stars 3 stars 4 stars 5 stars
comments

If Ya Gettin Down Bass Tab

FIVE - "If Ya Gettin' Down" - Bass Tab

Common Time(4/4)
Standard Tuning(EADG)

INTRO:
       (x4)                      (x4)
|-----------|-------------------------|
|*---------*|*-----------------------*|
|*-r-e-s-t-*|*-----.-.-.-.-----2-2h4-*|
|-----------|--1-1-1-1-1-1---2--------|
   1 2 3 4     1 e & 2 & 3 & a 4 e &
[ Tab from: http://www.guitartabs.cc/tabs/f/five/if_ya_gettin_down_btab_ver_2.html ]
VERSE:
|-------------------------|
|*-----------------------*|
|*-----.-.-.-.-----2-2h4-*|
|--1-1-1-1-1-1---2--------|
   1 e & 2 & 3 & a 4 e & 

CHORUS:
|----------|------------|
|*---------|-----------*|
|*-.-.-.---|-------3/5-*|
|--2-2-0-0-|h2-5--------|
   1 2 3 4   1 2 3 4 &

By: Johari Taylor
E-mail: viking@powerup.com.au, or s369700@student.uq.edu.au
More Bass Tabs: http://www.powerup.com.au/~viking/basstab.htm
Comments