Five - Everybody Get Up Chords & Tabs

 

Everybody Get Up Chords & Tabs

Five Chords & Tabs

Version: 1 Type: Bass Tab 0 ratings
1 star 2 stars 3 stars 4 stars 5 stars
comments

Everybody Get Up Bass Tab

FIVE - "Everybody Get Up" - Bass Tab

Common Time(4/4)
Drop D Tuning(DADG)

INTRO:

G|---------|---------|-----------------|-----------------|
D|---------|---------|-----------------|-----------------|
A|-r-e-s-t-|-r-e-s-t-|-----------------|-----------------|
D|---------|---------|-0-0-r-0-0-3-3---|-5-5-r-7-7-3-3---|
   1 2 3 4   1 2 3 4   1 & 2 3 & 4 e &   1 & 2 3 & 4 e &

G|-----------------|-----------|
D|-----------------|-----------|
A|-----------------|-----------|
D|-0-0-r-0-0-3-3---|-5-5-r-r-r-|
   1 & 2 3 & 4 e &   1 & 2 3 4

                                   (x4)
G|------------------|------------------|
D|*-----------------|-----------------*|
A|*-----------------|-----------------*|
D|--0-0-r-0-0-3-3---|-5-5-r-7-7-3-3----|
    1 & 2 3 & 4 e &   1 & 2 3 & 4 e &


VERSE 1:
        (x4)
|-----------|-----------|-----------|-----------|---------|
|*---------*|-----------|-----------|-----------|---------|
|*-r-e-s-t-*|-----------|-----------|-----------|-r-e-s-t-|
|-----------|-0-0-r-r-r-|-0-0-r-r-r-|-0-0-r-r-r-|---------|
   1 2 3 4    1 & 2 3 4   1 & 2 3 4   1 & 2 3 4   1 2 3 4 


1ST CHORUS:
                                   (x4)          (x4)
G|------------------|------------------|-------------|
D|*-----------------|-----------------*|*-----------*|
A|*-----------------|-----------------*|*-----------*|
D|--0-0-r-0-0-3-3---|-5-5-r-7-7-3-3----|--0-0-r-r-r--|
    1 & 2 3 & 4 e &   1 & 2 3 & 4 e &     1 & 2 3 4


VERSE 2:
         (x4)
G|-----------|-----------|-----------|-------------|-----------|
D|*---------*|-----------|-----------|-------------|-----------|
A|*-r-e-s-t-*|-----------|-----------|-----------5-|-----------|
D|-----------|-0-0-r-r-r-|-0-0-r-r-r-|-0-0-r-r-r---|-0-r-0-r-r-|
    1 2 3 4    1 & 2 3 4   1 & 2 3 4   1 & 2 3 4 &   1 2 & 3 4
[ Tab from: http://www.guitartabs.cc/tabs/f/five/everybody_get_up_btab.html ]
G|---------------|---------|
D|---------------|---------|
A|---------------|-r-e-s-t-|
D|-0-0-r-0-r-0-r-|---------|
   1 & 2 & 3 & 4   1 2 3 4


2ND CHORUS:
                                   (x4) 
G|------------------|------------------|
D|*-----------------|-----------------*|
A|*-----------------|-----------------*|
D|--0-0-r-0-0-3-3---|-5-5-r-7-7-3-3----|
    1 & 2 3 & 4 e &   1 & 2 3 & 4 e &


VERSE 3:
        (x4)
G|-----------|-----------|-----------|-----------|-----------|
D|*---------*|-----------|-----------|-----------|-----------|
A|*-r-e-s-t-*|-----------|-----------|-----------|-----------|
D|-----------|-0-0-r-r-r-|-0-0-r-r-r-|-0-0-r-r-r-|-0-0-r-r-r-|
    1 2 3 4    1 & 2 3 4   1 & 2 3 4   1 & 2 3 4   1 & 2 3 4

G|-----------|---------|
D|-----------|---------|
A|-----------|-r-e-s-t-|
D|-0-0-r-r-r-|---------|
   1 & 2 3 4   1 2 3 4

    
END:
         (x4)                                 (x4)
G|-----------|------------------|------------------|
D|*---------*|*-----------------|-----------------*|
A|*-r-e-s-t-*|*-----------------|-----------------*|
D|-----------|--0-0-r-0-0-3-3---|-5-5-r-7-7-3-3----|
    1 2 3 4     1 & 2 3 & 4 e &   1 & 2 3 & 4 e &

G|---------------|-----------------|
D|---------------|-----------------|
A|---------------|-----------------|
D|-r-r-0-0-3-3---|-5-5-r-7-7-3-3---|
   1 2 3 & 4 e &   1 & 2 3 & 4 e &

                                   (x2)
G|------------------|------------------|
D|*-----------------|-----------------*|
A|*-----------------|-----------------*|
D|--0-0-r-0-0-3-3---|-5-5-r-7-7-3-3----|
    1 & 2 3 & 4 e &   1 & 2 3 & 4 e &

G|-----------------|-----------|-----------|
D|-----------------|-----------|-----------|
A|-----------------|-----------|-----------|
D|-0-0-r-0-0-3-3---|-5-5-r-r-r-|-0-0-r-r-r-|
   1 & 2 3 & 4 e &   1 & 2 3 4   1 & 2 3 4

 
By: Johari Taylor
E-mail: viking@powerup.com.au, or s369700@student.uq.edu.au
More Bass Tabs: http://www.powerup.com.au/~viking/basstab.htm
Comments