Fisher Z - Worker Chords & Tabs

 

Worker Chords & Tabs

Fisher Z Chords & Tabs

Version: 1 Type: Bass Tab 0 ratings
1 star 2 stars 3 stars 4 stars 5 stars
comments

Worker Bass Tab

Fisher Z - The Worker (bass tab)

  Verse 1
E|---------|---------------5-55-5--------1-11-111-|
A|-12/-----|0-00-0-77752222------77753333---------|
D|---------|--------------------------------------|
G|---------|--------------------------------------|

  Variation 1+3	     Variation 2	 
E|11-13-03-033---8--|15--653-33-3323-3-32|
A|------------575-7-|--53-------------2--|
D|------------------|--------------------|
G|------------------|--------------------|
[ Tab from: http://www.guitartabs.cc/tabs/f/fisher_z/worker_btab.html ]
  Verse 4
E|------------5-55------------1-11-111-11-13-33-3323-3-32|
A|0-00-077-333----567-7-2-22-2------------------------2--|
D|-------------------------------------------------------|
G|-------------------------------------------------------|

  Chorus
E|------------------------------1-1-1-3-|
A|-0--0-3--0-7-----------0-3-3-0--------|
D|--------------0-5--0-3----------------|
G|--------------------------------------|

  Variation 5	       Variation 6
E|15--653-33-0335---8-|11-13-33-3323-3-32|
A|--53-----------575-7|---------------2--|
D|--------------------|------------------|
G|--------------------|------------------|

Comments: mail me at kantongerecht@hotmail.com
Comments