Fishbone - Alcoholic Chords & Tabs

 

Alcoholic Chords & Tabs

Fishbone Chords & Tabs

Version: 1 Type: Bass Tab 0 ratings
1 star 2 stars 3 stars 4 stars 5 stars
comments

Alcoholic Bass Tab

   
FISHBONE-ALCOHOLIC 
TABBED BY: MAX FISHER
[ Tab from: http://www.guitartabs.cc/tabs/f/fishbone/alcoholic_btab.html ]
Part A
G--------------------------------------------------
D--------------------------------------------------
A---------22--5--57575-----------------------------
E-12/0--0----------------------------------------------------------------
Part B
G--------------------------------------------------
D--------------------------------------------------
A--- 22 5 5h7 x 5h7--------------------------
E-0------------------------ 7----------------------------------------
Part C
G--------------------------------------------------
D--------------------------------------------------
A----22--5—55h7b5----------------------------
E--0---------------------7-------------------------------------------
Part D
G--------------------------------------------------
D-------- 9999 7777------------------------------------------
A----7777---------- 9999------------------
E------------------------------------------------------------------



Comments