Fish - Dammit Chords & Tabs

 

Dammit Chords & Tabs

Fish Chords & Tabs

Version: 1 Type: Tab 0 ratings
1 star 2 stars 3 stars 4 stars 5 stars
comments

Dammit Tab

Intro


e  ---------------------------------------------
b  ---------------------------------------------
g  ---------------------------------------------
d  ----0-0-2------0-0-2-----0-0-2-----2-2-0-----   
a  3-3------------------0-0---------------------
e  ----------3-3------------------1-1-----------
[ Tab from: http://www.guitartabs.cc/tabs/f/fish/dammit_tab.html ]
Verse
e  ------------------------------------------------------------------
b  ------------------------------------------------------------------
g  5555--------------------------------------------------------------
d  5555 5555-7777-3333------x4---------------------------------------
a  3333 5555-7777-3333-----------------------------------------------
e  ---- 3333-5555-1111-----------------------------------------------   
Intro x2

verse x4

Chorus

e  ------------------------------------------------------------------
b  ------------------------------------------------------------------ 
g  5-5-5-5-----------------------------------------------------------
d  5-5-5-5-5-5-5-5-7-7-7-7-3-3-3-3-------x2--------------------------
a  3-3-3-3-5-5-5-5-7-7-7-7-3-3-3-3-----------------------------------
e  --------3-3-3-3-5-5-5-5-1-1-1-1-----------------------------------

intro x 2

verse x4

chorus x4

intro x4

hope it is right!!!!!!!!!!!
Comments