First Circle - Akoy Sayo Chords & Tabs

 

Akoy Sayo Chords & Tabs

First Circle Chords & Tabs

Version: 1 Type: Tab 0 ratings
1 star 2 stars 3 stars 4 stars 5 stars
comments

Akoy Sayo Tab

 ##############################################################################################
 ###########           ##########       ############           #########           ############
 ###########           #######             #########    ####    ########           ############
 ##############    ###########    #####    #########    #####    #######    ###################
 ##############    ###########    #####    #########    ####    ########    ###################
 ##############    ###########             #########           #########            ###########
 ##############    ###########    #####    #########    ####    ###############     ###########
 ##############    ###########    #####    #########    #####    ##############     ###########
 ##############    ###########    #####    #########            ########            ###########
 ##############################################################################################

Date: August 31 2002
Author/Artist: First Circle
Title: Akoy Sayo
Transcribed by: Alberto Agad III

This is a fun song to play because it's easy.

Intro
e------2--2-*-4-4------5-2--(2)-----+
B----1-1--3-*-5--5----2--------(2)--+
G---2-------*--------2--------------+  Repeat 2 times but in the second time do not include the
D--0--------*-------0---------------+  (2).
A--------2-*-4----------------------+
E-----------------------------------+

Verse  - (Listen to the song for strumming pattern)
e--2---------------------2--+--2------------0------+
B--1---------------------2--+--2------------0------+
G--2---------------------2--+--2h2----------1------+
D--0---------------------4--+--2h4----------2------+
A------------------------4--+--2------------2------+
E------------------------2--+---------------0------+

Refrain
e--2--------------1-------------2-------------2----+
B--2--------------3-------------1-------------1p0--+
G--2--------------2-------------2-------------2----+
D--0--------------0-------------0-------------0----+
A--------------------------------------------------+
E--------------------------------------------------+
[ Tab from: http://www.guitartabs.cc/tabs/f/first_circle/akoy_sayo_tab.html ]
e--2--------------1-------------2-------------2----+
B--2--------------3-------------1-------------2----+
G--2--------------2-------------2-------------2----+
D--0--------------0-------------0-------------4----+
A---------------------------------------------4----+
E---------------------------------------------2----+

Chorus 1
e--2-----*----4--------5---+
B--2h3---*----5--------6---+
G--2-----*----4--------5---+   Repeat 2 times
D--2h4---*----6--------7---+
A--2-----*----4--------5---+
E--------*-----------------+

e--2------1------+
B--3------3------+
G--2------2------+
D--0------0------+
A----------------+
E----------------+

Chorus 2
e--2-----*----4--------5---+
B--2h3---*----5--------6---+
G--2-----*----4--------5---+   Repeat 2 times
D--2h4---*----6--------7---+
A--2-----*----4--------5---+
E--------*-----------------+

e--2------1------+
B--3------3------+
G--2------2------+
D--0------0------+
A----------------+
E----------------+

e--2--------2------2---*--4------5-----+
B--1--------2------2h3-*--5------6-----+
G--2--------2------2---*--4------5-----+
D--0--------4------2h4-*--6------7-----+
A-----------4------2---*--4------5-----+
E-----------2----------*---------------+

Now the lyrics together with the arrangement (Lyrics : Tab)

Intro : Play Intro

Verse 1 : Play Verse
Ikaw na ang may sabi, na akoy mahal mo rin
At sinabi mo, ang pag-ibig moy di magbabago

Refrain 1 : Play Refrain
Ngunit bakit? Sa tuwing akoy lumalapit ika'y lumalayo
Puso'y laging nasasaktan pag may kasama kang iba.

Chorus 1 : Play Chorus
Di ba nila alam
Tayo'y nagsumpaan
Na ako'y sayo at ikaw akin lamang.

Play Intro

Verse 2 : Play Verse
Kahit anong mangyari, pag-ibig ko'y sayo pa rin
At kahit ano pa, ang sabihin nila'y ikaw pa rin

Refrain 2 : Play Refrain
Ang mahal, maghihintay ako kahit kailan
Kahit na, umabot man ako'y nasa langit na

Chorus 2 : Play Chorus 2
At kung di ka makita
Makikiusap kay bathala
na ikay hanapin, at sabihin
ipaalala sa iyo ang nakalimutang sumpaan
na ako'y sa'yo at ika'y akin lamang

Play Intro

Bridge : Play Refrain
Umasa kang maghihintay kahit kailan
Kahit na, umabot man ako'y nasa langit na

Chorus 2 : Play Chorus 2
At kung di ka makita
Makikiusap kay bathala
na ikay hanapin, at sabihin
ipaalala sa iyo ang nakalimutang sumpaan
na ako'y sa'yo at ika'y akin lamang

-This is my first time to write a tabs kaya pagpasensyahan nyo na yung
gawa ko. Nakita ko kasi na kunti lang ang gumagawa ng tagalog na kanta
kaya gumawa ako ng isa.
						Alberto Agad III
						AdDu Students - BSECE
Comments