Fireign - Killer In The Night Chords & Tabs

 

Killer In The Night Chords & Tabs

Fireign Chords & Tabs

Version: 1 Type: Bass Tab

Killer In The Night Bass Tab

   
Intro:
G --------------------------------|
D --------------------------------|
A --------3---5-----------3---5---|
E 0---------------0---------------|


G --------------------------------|
D --------------------------------|
A ----------------3333333355555555|
E 0000000000000000----------------|x2


Chorus:(T=tripola-accent the first note)
G-------------------------------------------------------|
D-------------------------------------------------12----|
A-T777-T777-T777-T777-33-55-T777-T777-T777-T777-10--10--|
E-----------------------------------------------------0-|


G-------------------------------------------------|
D-------------------------------------------------|
A-T777-T777-T777-T777-33-55-T777-T777-00-11-33-55-|
E-------------------------------------------------|x3


Verse:
G-----------------------------------------|
D-----------------------------------------|
A----3--532----3--532-22-5--754-22-5--754-|
E-55--3-----55--3---------5---------5-----|
[ Tab from: http://www.guitartabs.cc/tabs/f/fireign/killer_in_the_night_btab.html ]
(S for slide)
G--------------------|
D--------------------|
A-3-3-3-3-33S5555555-|
E--------------------|

Intro 2:
G --------------------------|
D --------------------------|
A --------33333333355555555-|
E 0000000000000000----------|x2


Chorus:(T=tripola-accent the first note)
G-------------------------------------------------------|
D-------------------------------------------------12----|
A-T777-T777-T777-T777-33-55-T777-T777-T777-T777-10--10--|
E-----------------------------------------------------0-|


G-------------------------------------------------|
D-------------------------------------------------|
A-T777-T777-T777-T777-33-55-T777-T777-00-22-33-55-|
E-------------------------------------------------|x3


Verse:
G-----------------------------------------|
D-----------------------------------------|
A----3--532----3--532-22-5--754-22-5--754-|
E-55--3-----55--3---------5---------5-----|

(S for slide)
G--------------------|
D--------------------|
A-3-3-3-3-33S5555555-|
E--------------------|

hot_head_123@hotmail.com