Firehouse - I Live My Life For You Chords & Tabs

 

I Live My Life For You Chords & Tabs

Firehouse Chords & Tabs

Version: 4 Type: Tab 0 ratings
1 star 2 stars 3 stars 4 stars 5 stars
comments

I Live My Life For You Tab

   
Intro:
D Bm G A

D
You know you're everything to me
       Bm                              G     A
And I could never see, the two of us apart
                  D
And you know I give myself to you
             Bm                             G         A
And no matter what you do, I promise you my heart

        G                       D                       Em               D
I've built my world around you and I want you to know
   G                            D                   Em          Asus
I need you, like I've never needed anyone before


CHORUS
D      A             G Asus 
I live my life for you

C            G        Em    Asus    
I want to be by your side in everything that you do
 
D          A         Em         G       
And if there's only one thing you can believe is true
Em        G      A      D    G    D   
I live my life for you


D              
I dedicate my life to you
    Bm                                          
You know that I would die for you, but our love would last forever
  G  
And I will always be with you
A
And there is nothing we can't do, as long as we're together

Bridge:
G          D        Em                             D
I've built my world around you and I want you to know
G          D         Em                           Asus  
I need you, like I've never needed anyone before

[ Tab from: http://www.guitartabs.cc/tabs/f/firehouse/i_live_my_life_for_you_tab_ver_4.html ]
LEAD PART:
------------------------5-----------------5-5-7b-5-------------------|
----5-7b-5-----------5-7b 7-5-----------5-8-8-7-8-----------17-17----|
---7--------7-7-----7----------7-------7-----------------19----------|
-7----------------7------------------7----------------19-------------|
---------------------------------------------------------------------|
---------------------------------------------------------------------|


---------------------------------------------------------------------|
----------20-------19-------17-------19-------------20-------19------|
----19-------19-------19-------19-------19----19-------19-------19---|
-19----19-------19-------19-------19-------19----19---19-------19----|
---------------------------------------------------------------------|
---------------------------------------------------------------------|


---------------------------------------------------19b-19b-17-17-17--|
-17-------19-------------20-------19-------17----20------17----------|
----19-------19----19-------19-------19-------19----19---------------|
-------19-------19----19-------19-------19-------------19------------|
---------------------------------------------------------------------|
---------------------------------------------------------------------|


-17-21b-17-----------------------------------------------------------|
-----------20-19-19-19h20p19-17--------------------------------------|
--------------------------------19-----------------------------------|
---------------------------------------------------------------------|
---------------------------------------------------------------------|
---------------------------------------------------------------------|


REPEAT CHORUS:
I live my life for you

I want to be by your side in everything that you do

And if there's only one thing you can believe is true

I live my life for you

(guitar solo on chords of the verse)

REPEAT BRIDGE:      
I've built my world around you and I want you to know
I need you, like I've never needed anyone before
I live my life for you
I want to be by your side in everything that you do
And if there's only one thing you can believe is true


I live my life for you wow, yeah I live my life for you
Comments