Firehouse - Here For You Chords & Tabs

 

Here For You Chords & Tabs

Firehouse Chords & Tabs

Version: 5 Type: Tab 0 ratings
1 star 2 stars 3 stars 4 stars 5 stars
comments

Here For You Tab

   
Rate...Pls..   comments? aldem_raw@yahoo.com

Intro/Verse:

|----------------------3----------0-----------0------------0------|
|------------------------3-----------1----------------------------|
|-----0--------------0----------0----------0-----0------0-----0---|
|-0h2---0----0----------------------------------------------------|
|----------2-----------------0----------2------------3------------|
|----------------3------------------------------------------------|

|------------0------------------------------|
|---------1-----1------3---------1-0--------|
|--------------------2--------0-------------|
|------------------0------------------------|
|-0h2-3-------------------------------------|
|-------------------------3-----------------|

Riff:
|-------------------------------------------------------------------------|
|-----8--10/12-10-8--10/12--10-8--10/12--10-8------8-10/12--10-8--------8-|
|-7/9------------------------------------------7/9----------------9-7-9---|
|-------------------------------------------------------------------------|
|-------------------------------------------------------------------------|
|-------------------------------------------------------------------------|



Solo:
|-----------------------------------------------------17--15-----15-|
|-----8--10---10/12---12h13p12--10--12b13rb12--10--8----------17----|
|-7h9---------------------------------------------------------------|
|-------------------------------------------------------------------|
|-------------------------------------------------------------------|
|-------------------------------------------------------------------|


|----------7--7h8p7------7------7---10---------|
|---8--10------------10-----10-----------------|
|-9--------------------------------------------|
|----------------------------------------------|
|----------------------------------------------|
|----------------------------------------------|

[ Tab from: http://www.guitartabs.cc/tabs/f/firehouse/here_for_you_tab_ver_5.html ]
|-10-12-15-17--19b--17--19--19b--17--15-17--15-14-15--|
|-----------------------------------------------------|
|-----------------------------------------------------|
|-----------------------------------------------------|
|-----------------------------------------------------|
|-----------------------------------------------------|


|-15-15-15-15--14-14-14--12-12-12--10-10-10--10h12--10--|
|-------------------------------------------------------|
|-------------------------------------------------------|
|-------------------------------------------------------|
|-------------------------------------------------------|
|-------------------------------------------------------|

Lyrics:

So you think you've got it all figured out
Well you know you can't make it alone
Everybody needs somebody to help them out
And you know I could be that someone


Pre-Chorus:
                    Em
And if you ever get lost on life's highway
             Bm7
Don?t know where to go 
 C                                         D
There's just one thing that I want you to know

Chorus 1:

C     D         G   C       D       G
I am here for  you, always here for you
  Em                       Bm7
When you need a shoulder to cry on
   C          G    Am7   D         G
Someone to rely on, I am here for you

Verse 2:

So you think that love is long overdue
Tired of looking for someone to care
Let me tell you how, the choice is up to you
But you know, I will always be there


Chorus 2:

I am here for you, always here for you
When you're needin' someone to hold you
Remember I told you
                                C      D          G
I am here for you, I am here for you

Verse 3:

So now you've got it all figured out
And you know you've found someone that cares
And if you ever need somebody to help you out
Well you know I will always be there

- Repeat Pre-Chorus -
- Repeat Chorus 2 -
Comments