Firehouse - Dream Solo Chords & Tabs

 

Dream Solo Chords & Tabs

Firehouse Chords & Tabs

Version: 1 Type: Tab 0 ratings
1 star 2 stars 3 stars 4 stars 5 stars
comments

Dream Solo Tab

   
-------------------------------------------------------------------------------
			     SONG NAME - Band Name
-------------------------------------------------------------------------------
Tabbed by:
Email:

Tuning:

e|------------------------------------------------------------8-10-10/12--|
B|------------5-6-6/8---6-5-6--5h6p5--------------------8/10--------------|
G|--------5-7-------------------------7-5-7/9-7-5-------------------------|
D|----5-7-----------------------------------------5-----------------------|
A|------------------------------------------------------------------------|
E|------------------------------------------------------------------------|
[ Tab from: http://www.guitartabs.cc/tabs/f/firehouse/dream_solo_tab.html ]
e|--10-12-12/13--13-12-10-10--10-8--7-------------------15-------------------|
B|------------------------------------8----5/6-6--14-16----18-18----16-------|
G|-----------------------------------------5/7-------------------15----------|
D|---------------------------------------------------------------------------|
A|---------------------------------------------------------------------------|
E|---------------------------------------------------------------------------|

e|---------------12----------12----------------------------------------------|
B|-------16---------14----14-------------------------------------------------|
G|----15----15---------15----------------------------------------------------|
D|-15------------------------------------------------------------------------|
A|---------------------------------------------------------------------------|
E|---------------------------------------------------------------------------|



************************************

| /   slide up
| \   slide down
| h   hammer-on
| p   pull-off
| ~   vibrato
| +   harmonic
| x   Mute note
| b   Bend
| pb  Pre-bend
| br  Bend release
| pbr Pre-bend release
| brb Bend release bend

************************************
Comments