Firehouse - Dont Treat Me Bad Chords & Tabs

 

Dont Treat Me Bad Chords & Tabs

Firehouse Chords & Tabs

Version: 1 Type: Bass Tab 0 ratings
1 star 2 stars 3 stars 4 stars 5 stars
comments

Dont Treat Me Bad Bass Tab

I chose to tab this out in EADG tuning. You would have to use Drop D tuning
to hit the low Eb notes (you'll see that I simply tabbed them as higher Eb notes 
on the open A string). You could also use Eb Ab Db Gb tuning and play the song in 
A instead of Ab which of course would allow you to hit that low Eb on the open string.

Tabbed by: BASSteve

Tuning: EADG

Time signature: 4/4

r = rest (listen for duration)
/ = slide (low to high)
\ = slide (high to low)
()= note inside parenthesis not plucked or hammered on
{}= note inside pointed parenthesis still ringing from previous measure
||= measure gets repeated (see number of times above measure, e.g. 4x)


*My tabs are meant to be read in conjunction with listening to the song.
In other words, there are no specific notations to account for note/rest duration. 
However, you will find that I've made an attempt to strategically space the notes 
and rests within their respective measures in order to represent the appropriate 
durations.



 INTRO / VERSE 1

   9x
G||--------------------------------|--------------------------------||
D||--------------------------------|--------------------------------||
A||--------------------------------|--------------------------------||
E||r-------------------------------|--------------------------------||



|--------------------------------|--------------------------------|
|--------------------------------|--------------------------------|
|----------------------------6---|{6}-----------------------------|
|6-------------------------------|--------------------------------|


                                 CHORUS
|--------------------------------|--------------------------------|
|--------------------------------|--------------------------------|
|{6}-----------------------------|--------------------------------|
|--------------------------------|4---4---r-------6---6---r-------|


                 
|--------------------------------|--------------------------------|
|--------------------------------|--------------------------------|
|4---4---r-------6---6---r-------|--------------------------------|
|--------------------------------|4---4---4---4---6---6---6---6---|



|--------------------------------|--------------------------------|
|--------------------------------|--------------------------------|
|4---4---4---4---6---6---6---6---|--------------------------------|
|--------------------------------|4---4---r-------6---6---r-------|



|--------------------------------|--------------------------------|
|--------------------------------|--------------------------------|
|4---4---r-------6---6---r-------|--------------------------------|
|--------------------------------|4---4---4---4---6---6---6---6---|



|--------------------------------|--------------------------------|
|--------------------------------|--------------------------------|
|6-------------------------------|------------4-------4-4-4---3---|
|--------------------------------|4---4-4-6-----------------------|



|--------------------------------|--------------------------------|
|--------------------------------|--------------------------------|
|--------4---6-------6-6-6---4---|------------4-------4-4-4---3---|
|6---6-6-------------------------|4---4-4-6-----------------------|



                                  VERSE 2

                                   2x
|--------------------------------||--------------------------------|
|--------------------------------||--------------------------------|
|--------4---6-------6---6---6---||--------------------------------|
|6---6-6-------------------------||4---4---4---4---4---4---4---4---|



|--------------------------------|--------------------------------|
|--------------------------------|--------------------------------|
|----------------------------6---|------------3---3---3---3---3---|
|4---4---4---4---4---4---4-------|1---1---1-----------------------|


                                      3x
|--------------------------------|| ||--------------------------------|
|--------------------------------|| ||--------------------------------|
|4---4---4---6---6---6---6---6---|| ||4---4---4---6---6---6---6---6---|
|--------------------------------|| ||--------------------------------|


[ Tab from: http://www.guitartabs.cc/tabs/f/firehouse/dont_treat_me_bad_btab.html ]
|--------------------------------||--------------------------------|
|--------------------------------||--------------------------------|
|3---3---3-------------------6---||--------------------------------|
|------------1---1---1---1-------||6---6---6---6---6---6---6/-(7)--|



|--------------------------------|--------------------------------|
|--------------------------------|--------------------------------|
|6-------6---6---6---6---6---6---|6---6---6---6---6---6---6---6---|
|--------------------------------|--------------------------------|



[CHORUS]



SOLO

|--------------------------------|--------------------------------|
|--------------------------------|--------------------------------|
|--------------------------------|----------------------------6---|
|4---4---4---4---4---4---4---4---|4---4---4---4---4---4---4-------|



|--------------------------------|--------------------------------|
|--------------------------------|--------------------------------|
|------------3---3---3---3---3---|4---4---4---6---6---6---6---6---|
|1---1---1-----------------------|--------------------------------|



|--------------------------------|--------------------------------|
|--------------------------------|--------------------------------|
|------------3---3---3---3---3---|4---4-4-3-----------------------|
|1---1---1-----------------------|------------4-------4---4---4---|



|--------------------------------|--------------------------------|
|--------------------------------|--------------------------------|
|--------------------------------|6-------6---6---6---6---6---6---|
|6---6---6---6---6---6---6/-(7)--|--------------------------------|


                                   2x
|--------------------------------||----------------------------------------||
|--------------------------------||----------------------------------------||
|6---6---6---6---6---6---6---6/--||18---18---18---18---18---18---18---18---||
|--------------------------------||----------------------------------------||



|--------------------------------|--------------------------------|
|--------------------------------|--------------------------------|
|--------------------------------|--------------------------------|
|4---4---\-----------------------|---------------------------11\--|



|--------------------------------|--------------------------------|
|--------------------------------|--------------------------------|
|--------------------------------|--------------------------------|
|4---4---\-----------------------|--------------------------------|



OUTRO / CHORUS 2

  2x
||--------------------------------|--------------------------------|
||--------------------------------|--------------------------------|
||--------------------------------|4---4---r-------6---6---r-------|
||4---4---r-------6---6---r-------|--------------------------------|



|--------------------------------|--------------------------------|
|--------------------------------|--------------------------------|
|--------------------------------|4---4---4---4---6---6---6---6---|
|4---4---4---4---6---6---6---6---|--------------------------------|



|--------------------------------|--------------------------------|
|--------------------------------|--------------------------------|
|--------------------------------|4---4---r-------6---6---r-------|
|4---4---r-------6---6---r-------|--------------------------------|



|--------------------------------|--------------------------------||
|--------------------------------|--------------------------------||
|--------------------------------|6-------------------------------||
|4---4---4---4---6---6---6---6---|--------------------------------||


  6x
||--------------------------------|--------------------------------||
||--------------------------------|--------------------------------||
||------------4-------4-4-4---3---|--------4---6-------6-6-6---4---||
||4---4-4-6-----------------------|6---6-6-------------------------||



|--------------------------------|--------------------------------|
|--------------------------------|--------------------------------|
|--------4-----4-6-----4-6-------|4---6---------------------------|
|4-----4-----------------------4-|--------4-----------------(4)/--|



|--------------------------------|--------------------------------|
|--------------------------------|--------------------------------|
|--------------------------------|--------------------------------|
|(16)----------------------------|16---r--------------------------|


              (PLEASE RATE THIS TAB / LEAVE COMMENT)                   
Comments