Firehose - Making The Freeway Chords & Tabs

 

Making The Freeway Chords & Tabs

Firehose Chords & Tabs

Version: 1 Type: Bass Tab 0 ratings
1 star 2 stars 3 stars 4 stars 5 stars
comments

Making The Freeway Bass Tab

My tab of Making the Freeway by firehose.
firehose  "Making the Freeway" from "if'n"

Created with Emacs

-----------------------------------------
---------------------12--12--10----------
---------------------------------14--12--
-9--9--8--8--10--10----------------------  x8
[ Tab from: http://www.guitartabs.cc/tabs/f/firehose/making_the_freeway_btab.html ]

---------
---------
---------
-10--10--  x5


--------|------------------------------
-0------|-15\----------12--12----------
--------|------10--10----------10--10--
--------|------------------------------    x4

---------
---------
---------
-10--10--

Repeat all once. 
Comments