Firehose - Honey Please Chords & Tabs

 

Honey Please Chords & Tabs

Firehose Chords & Tabs

Version: 1 Type: Bass Tab 0 ratings
1 star 2 stars 3 stars 4 stars 5 stars
comments

Honey Please Bass Tab

******************************************************************
**BASS TAB for "Honey, please" from the 1987 fIREHOSE album IF'N**
**by Mike Watt, Ed Crawford.**************************************
******************************Published by SST Records************
******************************************************************

It's fantastic and easy to play! Mike Watt is without a doubt the
greatest bass player on the face of the earth so I've surely got
some of the following wrong. It's close enough anyway. 

For the GLISS it sounds like the bass slides away from the note to
somewhere lower.
[ Tab from: http://www.guitartabs.cc/tabs/f/firehose/honey_please_btab.html ]
Fig.1                                                   Fig.2
G:|----------|----------|----------|-----------|        |-----|
D:|-9--------|-7--------|-6--------|-7---------|        |--7--|
A:|---11-9-7-|----9-7-6-|----6-7-9-|----7-9-11-|        |-----|
E:|----------|----------|----------|-----------|        |-----|


Fig.3                                           Fig.4
G:|---------|---------|---------|------|        |----------|
D:|---------|---------|---------|------|        |----------|
A:|---------|---------|---------|------|        |----------|
E:|-7-7-7-7-|-5-5-5-5-|-4-4-4-4-|--5\--|        |-0--7-5-3-|
                                   GLISS

Fig.5
G:|-----------------|
D:|-----------------|
A:|-----------------|
E:|--5-5-5-5-5-5-5\-|
                GLISS

Fig.1 (play 3 3/4 times) then Fig.2 : verses 1, 2, 3.

Fig.3 (play twice) : chorus

Fig.4 (play 7 times) then Fig.5 : interlude


That's it. I'll try 'Hellhole' next.

Dan Capper, Birmingham, UK.
DJC@liyorkrd.li.co.uk



Comments