Fireball Ministry - Sundown Chords & Tabs

 

Sundown Chords & Tabs

Fireball Ministry Chords & Tabs

Version: 2 Type: Tab

Sundown Tab

Drop D tuning
[ Tab from: http://www.guitartabs.cc/tabs/f/fireball_ministry/sundown_tab_ver_2.html ]
e:---------------------------------------------------|
B:---------------------------------------------------|
G:---------------------------------------------------|
D:----------------2-1-2-1----------5--4--2-----------|
A:-4---2---4---2-----------4---2---5--4--2-----------|
D:---------------------------------5--4--2--0--------|

(x2)

e:---------------------------------------------------|
B:---------------------------------------------------|
G:---------------------------------------------------|
D:-5--5--5--5--5--4--2-------------------------------|
A:-5--5--5--5--5--4--2-------------------------------|
D:-5--5--5--5--5--4--2--0----------------------------|