Fireball Ministry - Rollin On Chords & Tabs

 

Rollin On Chords & Tabs

Fireball Ministry Chords & Tabs

Version: 1 Type: Tab 0 ratings
1 star 2 stars 3 stars 4 stars 5 stars
comments

Rollin On Tab

ROLLIN ON

Tuned 1/2 step down

         Riff 1:
                       1============= 2=============
     P.M..     P.M....     P.M..
|----------------------|--------------|-------------|
|----------------------|--------------|-------------|
|-o--------------------|------------o-|-----------o-|
|-o--------------------|------------o-|-7--X-7-5--o-|
|----------------------|--------------|-5--X-5-3----|
|----0-1-3-3---0-1-3-3-|-3-0-1-3-3----|-------------|

         Riff 2:
|-----------------------------------------------------------------|
|-----------------------------------------------------------------|
|-o-------------------------------------------------------------o-|
|-o--7---5---8---7---5---2-2------------------------------------o-|
|----5---3---6---5---3---0-0----0-0-0-0-0-0-0-0-0-0-0-0-0-0-0-----|
|-----------------------------------------------------------------|
[ Tab from: http://www.guitartabs.cc/tabs/f/fireball_ministry/rollin_on_tab.html ]
         Riff 2 Variation:
|------------------------|
|------------------------|
|------------------------|
|-o--7---5---8---7---5-5-|
|----5---3---6---5---3-3-|
|------------------------|

         Riff 3: 
|----------------------------------------------------------------------|
|----------------------------------------------------------------------|
|-o------------------------------------------------------------------o-|
|-o--------------3-3-3-3-3-3-3-3-------------5-5-5-5-5-5-5-5---------o-|
|---3-5-5-5-5-5-51-1-1-1-1-1-1-13-3-3-3-3-3-33-3-3-3-3-3-3-3---353-----|
|---1-3-3-3-3-3-3---------------1-1-1-1-1-1-1----------------56----6---|

         Riff 4:
|--------------------------|
|--------------------------|
|-o----------------------o-|
|-o---------------3------o-|
|---3-5-5-5-5-----1--3-3---|
|---1-3-3-3-3--------1-1---|

         Fill 1:
|--------------|
|--------------|
|--------------|
|--------------|
|--------5-3---|
|---5-3--------|
Comments