Fireball Ministry - He Who Kills Chords & Tabs

 

He Who Kills Chords & Tabs

Fireball Ministry Chords & Tabs

Version: 2 Type: Tab 0 ratings
1 star 2 stars 3 stars 4 stars 5 stars
comments

He Who Kills Tab

HE WHO KILLS

Tuned 1/2 step down

          Riff 1:
|---------------|----------------------|--------------|
|---------------|----------------------|--------------|
|-o-----------o-|--/7--5--3-5-3h5-3--o-|--/5--3-----o-|
|-o-----------o-|--------------------o-|---------3--o-|
|---5-7--5-7----|----------------------|--------------|
|---3-5--3-5----|----------------------|--------------|

          Riff 2:
|---------------|
|---------------|
|-o-----------o-|
|-o-5-7--5-7--o-|
|---3-5--3-5----|
|---------------|

          Riff 3:
|------------------------------------------|
|------------------------------------------|
|-o--------------------------------------o-|
|-o--------------5---5---/7-5-3-5---7-7--o-|
|---7---7---7---73---3----------3---5-5----|
|---5---5---5---5--------------------------|

         
          Fill 1:
|-----------|
|-----------|
|---5---7---|
|---3---5---|
|-----------|
|-----------|

          Riff 4:
|----------------------------------------------------------|
|----------------------------------------------------------|
|-o------------------------------------------------------o-|
|-o--7-7-5-7--2--3-3-----3-5-5---------------------------o-|
|----5-5-3-5--0--1-1-----1/3-3---3---3--3-3-5--5--3-5-3----|
|--------------------------------1---1--1-1-3--3--1-3-1----|


          Riff 4 Variation:
|---------------------------------------------------------|
|---------------------------------------------------------|
|-o-----------------------------------------------------o-|
|-o--7-7-5-7--2--3-3-----3-5-5--------------3--3--5--5--o-|
|----5-5-3-5--0--1-1-----1/3-3---3---3--3-3-1--1--3--3----|
|--------------------------------1---1--1-1---------------|

          Riff 5:
                 1============ 2=============
|----------------|-------------|-------------|
|----------------|-------------|-------------|
|-o----------5---|-----------o-|-----------o-|
|-o--2---5---3---|--/7-5-3h5-o-|-----------o-|
|----0---3-------|-------------|-3--5-3------|
|----------------|-------------|--------5----|
[ Tab from: http://www.guitartabs.cc/tabs/f/fireball_ministry/he_who_kills_tab_ver_2.html ]
          Riff 5 Variation:
                 1============ 2=============
|----------------|-------------|-------------|
|----------------|-------------|-------------|
|-o----------5-5-|-----------o-|-----------o-|
|-o--2---5-5-3-3-|--/7-5-3h5-o-|-----------o-|
|----0---3-3-----|-------------|-3--5-3------|
|----------------|-------------|--------5----|

ROLLIN ON

Tuned 1/2 step down

         Riff 1:
                       1============= 2=============
     P.M..     P.M....     P.M..
|----------------------|--------------|-------------|
|----------------------|--------------|-------------|
|-o--------------------|------------o-|-----------o-|
|-o--------------------|------------o-|-7--X-7-5--o-|
|----------------------|--------------|-5--X-5-3----|
|----0-1-3-3---0-1-3-3-|-3-0-1-3-3----|-------------|

         Riff 2:
|-----------------------------------------------------------------|
|-----------------------------------------------------------------|
|-o-------------------------------------------------------------o-|
|-o--7---5---8---7---5---2-2------------------------------------o-|
|----5---3---6---5---3---0-0----0-0-0-0-0-0-0-0-0-0-0-0-0-0-0-----|
|-----------------------------------------------------------------|

         Riff 2 Variation:
|------------------------|
|------------------------|
|------------------------|
|-o--7---5---8---7---5-5-|
|----5---3---6---5---3-3-|
|------------------------|

         Riff 3: 
|----------------------------------------------------------------------|
|----------------------------------------------------------------------|
|-o------------------------------------------------------------------o-|
|-o--------------3-3-3-3-3-3-3-3-------------5-5-5-5-5-5-5-5---------o-|
|---3-5-5-5-5-5-51-1-1-1-1-1-1-13-3-3-3-3-3-33-3-3-3-3-3-3-3---353-----|
|---1-3-3-3-3-3-3---------------1-1-1-1-1-1-1----------------56----6---|

         Riff 4:
|--------------------------|
|--------------------------|
|-o----------------------o-|
|-o---------------3------o-|
|---3-5-5-5-5-----1--3-3---|
|---1-3-3-3-3--------1-1---|

         Fill 1:
|--------------|
|--------------|
|--------------|
|--------------|
|--------5-3---|
|---5-3--------|
Comments