Fireball Ministry - Daughter Of The Damned Chords & Tabs

 

Daughter Of The Damned Chords & Tabs

Fireball Ministry Chords & Tabs

Version: 1 Type: Tab 0 ratings
1 star 2 stars 3 stars 4 stars 5 stars
comments

Daughter Of The Damned Tab

DAUGHTER OF THE DAMNED

Tuned 1/2 step down      
      
          Intro:
 (5)= 2nd Guitar-No palm mute          P.M...
|--------|---------------------------------------|
|--------|---------------------------------------|
|--------|-o---(5h7)(5h7)(5h75)--(5)-----------o-|
|--------|-o----3h5--3h5--3h53----3h5p3--------o-|
|--------|-----------------------------353-------|
|--/14\--|---0-0----0----0----------------353----|

          Riff 1: First time play first part
                              X3
|-------------------------------|---------------------------|
|-------------------------------|---------------------------|
|-o---------------------------o-|-------------------------o-|
|-o---------------------3--3--o-|--3----------------------o-|
|---3h555-53h555-53h555---------|----------------------3----|
|-------------------------------|---6--6--6--6--6--6--6-----|
[ Tab from: http://www.guitartabs.cc/tabs/f/fireball_ministry/daughter_of_the_damned_tab.html ]
          Riff 2:
|------------------------------------------------------|
|------------------------------------------------------|
|----------------------------------------------------o-|
|--7---57-----75---35--------------------------------o-|
|--5---35-----53---13-----5---35---57-8-----7---35-----|
|-------------------------3---13---35-6-----5---13-----|

          Riff 3:                   1====== 2=====
|----------------------------------|-------|-------|
|----------------------------------|-------|-------|
|-o------------------------------o-|-----o-|-----o-|
|-o------------------------------o-|-----o-|-----o-|
|-----5---35---57-8-----7---35-----|--3----|--7----|
|-----3---13---35-6-----5---13-----|--1----|--5----|

          Riff 4:
|-----------------------|
|-----------------------|
|-o-------------------o-|
|-o-------------------o-|
|---2--2-5-7---8/7-5----|
|---0--0-3-5---6/5-3----|

          Riff 5:             2nd guitar part
|------------------------| |------------------------| 
|------------------------| |------------------------|
|-o--------------------o-| |-o---------7p6p5------o-|
|-o---------5p4p3------o-| |-o----7p6p5-----5h77--o-|
|------5p4p3-----3h55----| |------------------------|
|---0-0------------------| |------------------------|
Comments