Fireball Ministry - Choker Chords & Tabs

 

Choker Chords & Tabs

Fireball Ministry Chords & Tabs

Version: 1 Type: Tab 0 ratings
1 star 2 stars 3 stars 4 stars 5 stars
comments

Choker Tab

Choker

Tuned 1/2 step down

          Intro:
|----------------|
|----------------|
|-o------------o-|
|-o------------o-|
|----3-----------|
|----1-----------|

          Riff 1:
|-----------------------------------|
|-----------------------------------|
|-o-------------------------------o-|
|-o-----3^-----------3------------o-|
|---3h5------5---3h5---3h5-3--535---|
|-----------------------------------|

          Riff 2:
|--------------------------------------------|
|--------------------------------------------|
|-o----------------------------------------o-|
|-o------------------------------------3^--o-|
|---3-5-5------------------3-5-5-5---3-------|
|------------3--3-5-3--0---------------------|

          Riff 3:
|--------------------------------------------------|
|--------------------------------------------------|
|-o----------------------------------------------o-|
|-o-----5--3--------------------------------------o-|
|-----------------5--3------------------------------|
|---0---------0----------0---5--3---0---3--5--3-----|
[ Tab from: http://www.guitartabs.cc/tabs/f/fireball_ministry/choker_tab.html ]
          Riff 3:
|-----------------------------------------------------|
|-----------------------------------------------------|
|-o-------------------------------------------------o-|
|-o----5--3--3--------------------------------------o-|
|-----------------5--3--3-----------------------------|
|----0----------0-----------0--5--3--3--0---3--5--3----|

          Riff 4:
|---------------------------------------|
|---------------------------------------|
|-o-----------------------------------o-|
|-o-----------------------------------o-|
|---3------8---8\7-7---5-7-7-5-8-7-5----|
|---1--X-X-6---6\5-5---3-5-5-3-6-5-3----|


          Riff 3:
                             1========================== 2=================
|----------------------------|--------------------------|------------------|
|----------------------------|--------------------------|------------------|
|-o------------------------o-|------------------------o-|----------------o-|
|-o-------5--3---3---------o-|-------5--3---3---------o-|----------------o-|
|------------------3-3-5-3---|----------------3-5-3-5---|------------------|
|---0--0---------------------|-0--0---------------------|-3333-3-11111-1---|
Comments