Finntroll - Trollhammaren Chords & Tabs

 

Trollhammaren Chords & Tabs

Finntroll Chords & Tabs

Version: 2 Type: Tab 0 ratings
1 star 2 stars 3 stars 4 stars 5 stars
comments

Trollhammaren Tab

The little folky bit

E||---------------3-1--------------|----------------1~-------------|
B||----3-3-1/3--3-----3-1----------|------------1h3---1h-----------|
G||-----------------------3-0--0-2-|--3h2-0-2h3---------2---2-0----|
D||--5-----------------------------|----------------------3--------|
A||--------------------------------|-------------------------------|
E||--------------------------------|-------------------------------|


                                                                   
---------------3-1--------------|-------------1---------------|---|
----3-3-1/3--3-----3-1----------|----------------1------------|---|
--0--------------------3-0--0-2-|--3h2-0-2h3-------2---2-0----|---|
--------------------------------|--------------------3--------|---|
--------------------------------|-----------------------------|---|
--------------------------------|-----------------------------|---|


                                                                 
---------------3-1--------------|----------------1~-------------|
----3-3-1/3--3-----3-1----------|------------1h3---1h-----------|
--0--------------------3-0--0-2-|--3h2-0-2h3---------2---2-0----|
--------------------------------|----------------------3--------|
--------------------------------|-------------------------------|
--------------------------------|-------------------------------|

[ Tab from: http://www.guitartabs.cc/tabs/f/finntroll/trollhammaren_tab_ver_2.html ]
                                                               
---------------3-1--------------|-------------1---------------|
----3-3-1/3--3-----3-1----------|----------------1------------|
--0--------------------3-0--0-2-|--3h2-0-2h3-------2---2-0----|
--------------------------------|--------------------3--------|
--------------------------------|-----------------------------|
--------------------------------|-----------------------------|


                                                             
------1---0---------1---0-----|------1---0------------------|
----3---3/---3----3---3/---3--|----3---3/---3---------------|
--3-------------3-------------|--3-------------0-2-0---0----|
------------------------------|----------------------3------|
------------------------------|-----------------------------|
------------------------------|-----------------------------|


                                                                            
------1---0---------1---0-----|------1---0------------------|----|----|----|
----3---3/---3----3---3/---3--|----3---3/---3---------------|----|----|----|
--3-------------3-------------|--3-------------0-2-0---0----|----|----|----|
------------------------------|----------------------3------|----|----|----|
------------------------------|-----------------------------|----|----|----|
------------------------------|-----------------------------|----|----|----|
Comments