Finntroll - Trollhammaren Chords & Tabs

 

Trollhammaren Chords & Tabs

Finntroll Chords & Tabs

Version: 1 Type: Tab 1 rating
1 star 2 stars 3 stars 4 stars 5 stars
comments

Trollhammaren Tab

   
#Note:############################################################################################
#God damn, I didnt find this tab! I searched about 4 hours, but I didnt find it, so i started to #
#make it by myself. It took few hours to make it. So here it is...                               #
#And if you have some comlicating about this tab, you can                                        #
#A)Make it by yourself                                                                           #
#B)Find it from other page!#######################################################################



FINNTROLL - TROLLHAMMAREN





riff A
|-------------3-1----------------------------1~------------|
|----3-3-1/3------3-1--------------------1h3----1h---------|
|---------------------3------2-3p2---2h3-----------3-------|
|-5---------------------5--5-------5-----------------5-3/5-|
|----------------------------------------------------------|
|----------------------------------------------------------|
                                                (2x)
riff B (0:10)
|----------------------------------------------------|
|----------------------------------------------------|
|----------------------------------------------------|
|----------------------------------------------------|
|-5--55-55-55---55-55-55-55--------------------------|
|-3--33-33-33---33-33-33-33--------------------------|
    p.m....................                        (1x)

riff C
|----------------------------------------------------|
|----------------------------------------------------|
|----------------------------------------------------|
|-------3--------------------------------------------|
|-5--5--1--5--6--3--6--5-----------------------------|
|-3--3-----3--6--1--6--3-----------------------------|
                                                (2x)
riff D (chords) (I dont know the keyboard part) (0:21)
|----------------------------------------------------|
|----------------------------------------------------|
|----------------------------------------------------|
|-3--5---3--5---3--5---------------------------------|
|-1--3---1--3---1--3---5/6-5-3/5---------------------|
|----------------------3/4-3-1/3---------------------|
                                                (2x)
riff E (0:32)
|----------------------------------------------------|
|----------------------------------------------------|
|----------------------------------------------------|
|----------------------------------------------------|
|-6~-------------------------------------------------|
|-4--------------------------------------------------|

riff F (0:33)
|-------------------------------------------------------|
|-------------------------------------------------------|
|-------------------------------------------------------|
|------------------------------------33-3---------------|
|-55-5---55-5---66-6---55-5---33-3---11-1---33-3---55-5-|
|-33-3---33-3---66-6---33-3---11-1----------11-1---33-3-|
  ..     ..     ..     ..     ..     ..     ..     ..

|-------------------------------------------------------|
|-------------------------------------------------------|
|-------------------------------------------------------|
|------------------------------------33-3---------------|
|-55-5---55-5---66-6---55-5---33-3---11-1---33-3---5----|
|-33-3---33-3---66-6---33-3---11-1----------11-1---3----|
  ..     ..     ..     ..     ..     ..     ..

repeat riff D (2x) (0:45)
[ Tab from: http://www.guitartabs.cc/tabs/f/finntroll/trollhammaren_tab.html ]
riff G (0:55)
|----------------------------------------------------|
|----------------------------------------------------|
|----------------------------------------------------|
|----------------------------------------------------|
|-5------5----5--3-3---5------5-----5--3--6~---------|
|-3-33-3-3-33-3--1-1---3-33-3-3-3-3-3--1--4----------|
    .. .   ..            .. .   . .                (1x)

repeat riff A 2x (1:02)
repeat riff B 2x (1:13)
repeat riff F 1x (1:23)
repeat riff D 2x (1:33)

riff H (1:43)
|----------------------------------------------------|
|----------------------------------------------------|
|----------------------------------------------------|
|----3--5--3-----------------------------------------|
|-5--1--3--1-^-3-------------------------------------|
|-3------------1-------------------------------------|
                                                (2x)
riff I (1:52)
|----------------------------------------------------|
|----------------------------------------------------|
|----------------------------------------------------|
|----------------------------------------------------|
|-5------5----5--3-3---5------5-----5--3-------------|
|-3-33-3-3-33-3--1-1---3-33-3-3-3-3-3--1-------------|
    .. .   ..            .. .   . .                (4x)

riff J (2:13)
|----------------------------------------------------|
|----------------------------------------------------|
|----------------------------------------------------|
|----------------------------------------------------|
|-5-----6p5-5-----5-----6p5-5--3-3-------------------|
|-3-333-4-3-3-----3-333-4-3-3--1-1-------------------|
    ...             ...                         (1x)

|----------------------------------------------------|
|----------------------------------------------------|
|----------------------------------------------------|
|----------------------------------------------------|
|-5-----6p5-5-----6-----8p6-6--3---------------------|
|-3-333-4-3-3-----4-444-6-4-4--1---------------------|
    ...             ...                         (1x)

repeat riff H 2x (2:33)

riff K (2:44)
|----------------------------------------------------|
|----------------------------------------------------|
|----------------------------------------------------|
|----------------3-33-33-33-33--5-55-55-55-55--------|
|-5-55-55-55-55--1-11-11-11-11--3-33-33-33-33--------|
|-3-33-33-33-33--------------------------------------|
 p.m.........................................

|----------------------------------------------------|
|----------------------------------------------------|
|----------------------------------------------------|
|-3-33-33--------------------------------------------|
|-1-11-11--3-33-33-----------------------------------|
|----------1-11-11-----------------------------------|
 p.m..............

|----------------------------------------------------|
|----------------------------------------------------|
|----------------------------------------------------|
|----------------3-33-33-33-33--5-55-55-55-55--------|
|-5-55-55-55-55--1-11-11-11-11--3-33-33-33-33--------|
|-3-33-33-33-33--------------------------------------|
 p.m.........................................

|----------------------------------------------------|
|----------------------------------------------------|
|----------------------------------------------------|
|-3-33-33--------------------------------------------|
|-1-11-11--3-33-33----6------------------------------|
|----------1-11-11----4------------------------------|
 p.m..............

repeat riff A 2x (2:55)
repeat riff D 4x (3:06) (till end of song)

Micki Nine...
Comments