Finntroll - Den Sista Runans Dans Chords & Tabs

 

Den Sista Runans Dans Chords & Tabs

Finntroll Chords & Tabs

Version: 1 Type: Tab 0 ratings
1 star 2 stars 3 stars 4 stars 5 stars
comments

Den Sista Runans Dans Tab

this is an acoustic guitar song.It's very easy so have fun!

there is two cleans guitars who plays together and have exactly the same rythm
1st riff:from 0:18 to 1:23

first guitar:(X 6)


----------------------------------------------------------------------|
----------------------------------------------------------------------|
----------------------------------------------------------------------|
---------------------------------------------4--4-4-4-4-2-------------|
-4--4-4-5-4-----4-5-5-4---4-4-5-4------4-5-5--------------4-5-4--4--4-|
------------5--5------------------5--5--------------------------------|


------------------------------|
------------------------------|
------------------------------|
------------------------------|
-4-5-4------4-5-5-4--4-5-4----|
-------5--5-------------------|


second guitar: (X 6)


---------------------------------------------------------------------|
---------------------------------------------------------------------|
---------------------------------------------------------------------|
---------------------------------------------------------------------|
-5--5-5-5-5-3--3-3-3-3-5--5-5-5-5-3--3-3-3-3-7--7-7-7-7-5--5-5-5-5-3-|
-5--5-5-5-5-3--3-3-3-3-5--5-5-5-5-3--3-3-3-3-7--7-7-7-7-5--5-5-5-5-3-|


--------------------|
--------------------|
--------------------|
--------------------|
-3-3-3-3-5----5-7-5-|
-3-3-3-3-5----5-7-5-|


Chorus:(X 2) from 1:23 to 1:47
the second guitar plays the chorus alone

---------------------------------------------------------------------|
---------------------------------------------------------------------|
---------------------------------------------------------------------|
---------------------------------------------------------------------|
-6--6-6-6-6-6--6-6-6-6-4--4-4-4-4-4--4-4-4-4-2--2-2-2-2-2--2-2-2-2-2-|
-6--6-6-6-6-6--6-6-6-6-4--4-4-4-4-4--4-4-4-4-2--2-2-2-2-2--2-2-2-2-2-|

[ Tab from: http://www.guitartabs.cc/tabs/f/finntroll/den_sista_runans_dans_tab.html ]
------------------------|
------------------------|
------------------------|
------------------------|
-2-2-2-2-2--2-2-2-2-6---|
-2-2-2-2-2--2-2-2-2-6---|


second riff:from 1:47 to 2:32   (X4)

first guitar:
----------------------------------------------------------------------|
----------------------------------------------------------------------|
---------------------------------------------4--4-4-4-4-2-------------|
-4--4-4-5-4------4-5-5-4--4-4-5-4------4-5-5--------------4-5-4--4--4-|
------------5--5------------------5--5--------------------------------|
----------------------------------------------------------------------|


-----------------------------|
-----------------------------|
-----------------------------|
-4-5-4------4-5-5-4--4-5-4---|
-------5--5------------------|
-----------------------------|

second guitar:

---------------------------------------------------------------------|
---------------------------------------------------------------------|
---------------------------------------------------------------------|
---------------------------------------------------------------------|
-5--5-5-5-5-3--3-3-3-3-5--5-5-5-5-3--3-3-3-3-7--7-7-7-7-5--5-5-5-5-3-|
-5--5-5-5-5-3--3-3-3-3-5--5-5-5-5-3--3-3-3-3-7--7-7-7-7-5--5-5-5-5-3-|


----------------------|
----------------------|
----------------------|
----------------------|
-3-3-3-3-5----5-7-5---|
-3-3-3-3-5----5-7-5---|


Chorus:from 2:32 to the end of the song   (X5)


----------------------------------------------------------------------|
----------------------------------------------------------------------|
----------------------------------------------------------------------|
----------------------------------------------------------------------|
-6--6-6-6-6-6--6-6-6-6-4--4-4-4-4--4-4-4-4--2-2-2-2-2--2-2-2-2-2--2-2-|
-6--6-6-6-6-6--6-6-6-6-4--4-4-4-4--4-4-4-4--2-2-2-2-2--2-2-2-2-2--2-2-|


-------------------|
-------------------|
-------------------|
-------------------|
2-2-2--2-2-2-2-6---|
2-2-2--2-2-2-2-6---|


that's the end of the song!Den sista runans dans is a very nice song and isn't too hard 
play.Have a nice moment!
Comments