Finley Quaye - Dice Chords & Tabs

 

Dice Chords & Tabs

Finley Quaye Chords & Tabs

Version: 3 Type: Tab 0 ratings
1 star 2 stars 3 stars 4 stars 5 stars
comments

Dice Tab

-----------------------------------------------------------------------------
			     DICE - Finley Quaye
-----------------------------------------------------------------------------
Tabbed by: Rygel
Email: rygel_daikini@hotmail.com

Ok, I suffered enough trying to find this tab (as the South tab that I just submitted),
but hey! Here it is, finally, at least a part of it (tabbed by myself, don't ask how
T_T). This amazing song is just one of the bests in the Mix 1 of The O.C.

Martha, I Love You ^^

Tuning: Standard
[ Tab from: http://www.guitartabs.cc/tabs/f/finley_quaye/dice_tab_ver_3.html ]
e|-------------------------|
B|------------9-----10-----|
G|-----11------------------|
D|-------------------------|
A|-------------------------|
E|-------------------------|

e|------------------------------|
B|-----------9-----10-----9-----|
G|-----9------------------------|       x 3
D|------------------------------|
A|------------------------------|
E|------------------------------|

Verse

e|-----X-----X-----X-----X-----|
B|-----X-----X-----X-----X-----|
G|-----X-----X-----X-----X-----|
D|-----4-----0-----2-----2-----|
A|-----2-----0-----0-----2-----|
E|-----0-----0-----0-----0-----|


Chorus

e|-----0-----2-----0-----0-----|
B|-----0-----3-----2-----0-----|
G|-----4-----2-----2-----1-----|
D|-----4-----0-----2-----2-----|
A|-----2-----0-----0-----2-----|
E|-----0-----0-----0-----0-----|
Comments