Finkelstiens - Have You Chords & Tabs

 

Have You Chords & Tabs

Finkelstiens Chords & Tabs

Version: 1 Type: Tab 0 ratings
1 star 2 stars 3 stars 4 stars 5 stars
comments

Have You Tab

   
Have you - The Finkelstiens
Album: The dawning of a new error
Tabbed by frikkie jacobs
E-mail: frikkie.jacobs@zilwerwind.com

The finkelstiens are a pop-rock band from south africa. They are very popular here and 
songs rock. Check them out. www.finkelstiens.co.za

Intro: (Part 1)
(clean)
E-------------------------------------|
B-------------------------------------|
G-------------------------------------|
D-----9-----9--------9-----9----------|
A-7-7---7-7---7--6-6---6-6---6--------|
E-------------------------------------|

E-------------------------------------|
B-------------------------------------|
G-------------------------------------|
D-----9-----9--------9-----9----------|
A-7-7---7-7---7--9-9---9-9---9--------|
E-------------------------------------|

E-------------------------------------|
B-------------------------------------|
G-------------------------------------|
D-----9-----9--------9-----9----------|
A-7-7---7-7---7--6-6---6-6---6--------|
E-------------------------------------|

E-------------------------------------|
B-------------------------------------|
G-------------------------------------|
D-----9-----9---9--11-----------------|
A-7-7---7-7---7-----9-----------------|
E-------------------------------------|
[ Tab from: http://www.guitartabs.cc/tabs/f/finkelstiens/have_you_tab.html ]
(distorted) (part 2)
E-7---7---6---6---4---4---6---6-------|  (x2)
B---7---7---7---7---7---7---7---7-----|
G-------------------------------------|
D-------------------------------------|
A-------------------------------------|
E-------------------------------------|

Verse 1:
(its nothing old...)

B  F#  G#  F#

(Between lines you have to play:)

E  E\D#  E  F# (Refer to bottom to view correct fingering of these chords)


Chorus:
(Have you ever heard...)

B  F#  G#  E

Solo:
(Palm mute=X)
E-------------------------------------|
B-------------------------------------|
G-------------------------------------|
D-----9X----9X-------9X----9X---------|
A-7X7X--7X7X--7X-6X6X--6X6X--6X-------|
E-------------------------------------|

E-------------------------------------------------|
B-------------------------------------------------|
G-------------------------------------------------|
D-----9X----9X----9b10r9--9b10r9--9b10r9--9b10r9--|
A-7X7X--7X7X--7X--9b10r9--9b10r9--9b10r9--9b10r9--|
E-------------------------------------------------|

(distorted) (part 2)
E-7---7---6---6---444-666-777-999-|
B---7---7---7---7-777-777-777-777-|
G---------------------------------|
D---------------------------------|
A---------------------------------|
E---------------------------------|

E\D#    X-6-9-9-X-X-|
E    X-7-9-9-X-X----|
F#    X-9-11-11-X-X-|
Comments