Fingertight - Guilt Hold On Chords & Tabs

 

Guilt Hold On Chords & Tabs

Fingertight Chords & Tabs

Version: 1 Type: Tab 0 ratings
1 star 2 stars 3 stars 4 stars 5 stars
comments

Guilt Hold On Tab

   
Artist: Fingertight
Song Title: Guilt (Hold On)
Album: In The Name Of Progress
Tabber: ajc (adam@areasix.co.uk)
Tuning: Standard

Ok, heres the basic framework of the song - there are variations
but I think this will be a pretty good guideline.

The intro to this song was easy to figure out because its pretty much the same
notes as  Metallica - Fade To Black plus a couple of harmonics.


Intro With Echo/Distortion
e|----------------------------------------|
b|----------------------------------------|
g|------0--------0---------0-----<5>------|
d|----4---4----4----4----4---0~------<5>--|
a|--2~~~~~~~/5---------0------------------|
e|----------------------------------------|

e|----------------------------------------|
b|----------------------------------------|
g|------0--------0---------0---------<5>--|
d|----4---4----4----4----4---0~--<5>------|
a|--2~~~~~~~/5---------0------------------|
e|----------------------------------------|
[ Tab from: http://www.guitartabs.cc/tabs/f/fingertight/guilt_hold_on_tab.html ]
I'm not too sure on the harmonics but they fit in.


Verse - "I went to sleep last night...."

First guitar plays:
e|---------------|
b|---------------|
g|---------------|
d|---------------|
a|--2~~~/5~~~\0--|
e|---------------|

And I think second guitar plays the intro, but definatly plays
the harmonics with distorted echo in the background.


Chorus - "Hold out..."

e|------------------------|
b|------------------------|
g|--4--7--2----12--11--9--|
d|--4--7--2----x---x---x--|
a|--2--5--0----10--9---7--|
e|------------------------|
              | second guitar may play this with the first guitar holding
                the Am


Second verse is intro in clean tone - again harmonics distorted with echo.


Havent worked out the outro or interlude yet.  There just seems to be no tabs for
the song anywhere so I thought I'd post an incomplete one for people to work on.
I'm by no stretch of the imagination a perfect tabber - email me any mistakes
I've made.
Comments