Finger Eleven - Walking In My Shoes Chords & Tabs

 

Walking In My Shoes Chords & Tabs

Finger Eleven Chords & Tabs

Version: 3 Type: Tab 0 ratings
1 star 2 stars 3 stars 4 stars 5 stars
comments

Walking In My Shoes Tab

Finger Eleven - Walking In My Shoes
Depeche Mode cover song
Album - Greyest of Blue Skies
Tabbed by: Jacob Belisario
Tuning - Drop D Half Step

The other tab to song was incomplete and incorrect. I decided to tab out my version of 
song. please rate.


Intro
1:----------------------------------------------------------------|
2:----------2--------------------------7--------------------0-----|
3:----3--------------------------8----------------------3------3--|
4:-------1--------------------------6--------------4--------------|
5:----------------------------------------------2-----------------|
6:-1--------------------------6-----------------------------------|

Intro- With heavy distortion
1:----------------------------------------------------------------|
2:----------2--------------------------6--------------------0-----|
3:-------3--3--------------------------8----------------3------3--|
4:-1--------1-----------------6-----6--6-----------4--------------|
5:-1--------------------------6-----------------2-----------------|
6:-1--------------------------6--------------4--------------------|

1:---------------------------|
2:----------2----------------|
3:--------3-3----------------|
4:-1--------1----------------|
5:-1-------------------------|
6:-1-------------------------|
*Pick only the first note and bend up and down a half-step to indicated frets.

Verse - distortion
1:------------------------------------------------------|
2:----------------------------14---14-------------------|
3:----------------------------11------10---10/8---------|
4:------------------------------------------------------|
5:------------------------------------------------------|
6:------------------------------------------------------|

Pre-Chorus - Distortion
1:-----------------------------|
2:-----------------------------|
3:-6---6-6-6-------------------|
4:-6---6-6-6---0-1---1-1-1---1-|
5:-4---4-4-4---0-1---1-1-1---1-|
6:-------------0-1---1-1-1---1-|
[ Tab from: http://www.guitartabs.cc/tabs/f/finger_eleven/walking_in_my_shoes_tab_ver_3.html ]
Pre-Chorus B - Distortion
1:----------------------------------------------------------|
2:----------------------------------------------------------|
3:-6---6-6-6------------------------------------------------|
4:-6---6-6-6---0-4-----0------------------------------------|
5:-4---4-4-4---0-4-----0-----2~-----------------------------|
6:-------------0-4-----0--------------------6~--------------|

Chorus A - Distortion
1:---------------------------------------------------------|
2:---------------------------------------------------------|
3:---------------------------------------------------------|
4:-1---1-1-1---1-8---8-8-8---8-9---9-9-9---9-6---6-6-6-6-6-|
5:-1---1-1-1---1-8---8-8-8---8-9---9-9-9---9-6---6-6-6-6-6-|
6:-1---1-1-1---1-8---8-8-8---8-9---9-9-9---9-6---6-6-6-6-6-|

Chorus B - Distortion
1:--------------------------------------|
2:--------------------------------------|
3:--------------------------------------|
4:-9---9-9-9---9-11--11---11---11-11-11-|
5:-9---9-9-9---9-11--11---11---11-11-11-|
6:-9---9-9-9---9-11--11---11---11-11-11-|


Solo - Distortion (Matcod inspired me to tab this solo)
1:-18~------------------------------18------18-18-18-18-19-19-19-19-19-19-\11-|
2:--------19--18~----19~--/21\19--------21------------------------------------|
3:----------------------------------------------------------------------------|
4:----------------------------------------------------------------------------|
5:----------------------------------------------------------------------------|
6:----------------------------------------------------------------------------|

1:-/18---18-18---\11--/19-19-19-19-19-19b-19b-19b-19b-19b-19b-19b-|
2:----------------------------------------------------------------|
3:----------------------------------------------------------------|
4:----------------------------------------------------------------|
5:----------------------------------------------------------------|
6:----------------------------------------------------------------|


Riff B - Distortion
1:-----------------------------------------------------------|
2:-----------------------------------------------------------|
3:-6---6-6-6-----------------4-4-4-4-4-4-4-4-4-4-4-4-4-4-4-4-|
4:-6---6-6-6---0-4-----0-----4-4-4-4-4-4-4-4-4-4-4-4-4-4-4-4-|
5:-4---4-4-4---0-4-----0-----2-2-2-2-2-2-2-2-2-2-2-2-2-2-2-2-|
6:-------------0-4-----0-------------------------------------|

1:---------------------------------|
2:---------------------------------|
3:---------------------------------|
4:-6-6-6-6-6-6-6-6-6-6-6-6-6-6-6-6-|
5:-6-6-6-6-6-6-6-6-6-6-6-6-6-6-6-6-|
6:-6-6-6-6-6-6-6-6-6-6-6-6-6-6-6-6-|
Comments