Finger Eleven - Tip Chords & Tabs

 

Tip Chords & Tabs

Finger Eleven Chords & Tabs

Version: 1 Type: Tab 0 ratings
1 star 2 stars 3 stars 4 stars 5 stars
comments

Tip Tab

Tip - Finger Eleven

Song is played in D# on the cd.  It sounds good in just drop D though. 

Main Riff
Guitar 1
-----------------------|-------------------------------------------
-----------------------|-------------------------------------------
-----------------------|-------------------------------------------
-----------------------|-------------------------------------------
0-00-3--xxxxx-xx-------|-------------------------------------------
0-00-3--xxxxx-xx-------|-------------------------------------------

Main Riff
Guitar 2
--------------------------------|----------------------------------
--------------------------------|----------------------------------
--------------------------------|----------------------------------
10-10-10---10-10-xx-------------|----------------------------------
8--8--8----8--8--xx---9----9----|----------------------------------
----------------------9----9----|----------------------------------

Or you can just bind that.....like so....
------------------------------------------------------------------|
------------------------------------------------------------------|
------------------------------------------------------------------|
------------------------------------------------------------------|
0-00-3-----x-xx----999--9-----------------------------------------|
0-00-3-----x-xx----999--9-----------------------------------------|
[ Tab from: http://www.guitartabs.cc/tabs/f/finger_eleven/tip_tab.html ]
Chorus
Both Guitars
------------------------------------------------------------------|
------------------------------------------------------------------|
------------------------------------------------------------------|
7----7-----7-----7------------------------------------------------|
-------------------------8----------------------------------------|
--7-----7-----7-----7----8----------------------------------------|

Break Down
Guitar 1
------------------------------------------------------------------|
------------------------------------------------------------------|
------------------------------------------------------------------|
------------------------------------------------------------------|
00----------------00--------------00--------------00--------------|
00----------------00--------------00--------------00--------------|

Break Down
Guitar 2
(Wah Wah Pedal used)
-----------------------------|-------------------------------------|
-----------------------------|----Repeated-------------------------|
-----------------------------|-------------------------------------|
-----------------------------|-------------------------------------|
-0--4--5--7--5--4------------|-------------------------------------|
-----------------------------|-------------------------------------|

Thought Id Throw In The Bass Solo
------------------------------17-17-17-17---12-12-12---12-12-12--12-12-----|
12-12-12-----12-12-15-15-15---------------------------------------------15-|
---------------------------------------------------------------------------|
---------------------------------------------------------------------------|

Comments