Finger Eleven - Suffocate Chords & Tabs

 

Suffocate Chords & Tabs

Finger Eleven Chords & Tabs

Version: 1 Type: Bass Tab 0 ratings
1 star 2 stars 3 stars 4 stars 5 stars
comments

Suffocate Bass Tab

BASS TAB
ARTIST:FINGER ELEVEN
TITLE:SUFFOCATE
ALBUM:THE GRAYEST OF BLUE SKIES(2000)
TABBED BY: "THE WARLORD"-ADROCK17@EMAIL.COM
This song is fairly easy, just a matter of timing and groove.(NEED
5-STRING OR TUNE ALL STRINGS DOWN..."G" IS NOT USED)

intro:
D:---------6----------------------+
A:------4-----4-6-----------------+
E:6-66------------7---------------+

pre-chorus:
D:-----------------1-11----------------------------------+      
A:1-234-(just once)-----22-22----x3--then-1-11\44-44-444-+
[ Tab from: http://www.guitartabs.cc/tabs/f/finger_eleven/suffocate_btab.html ]
chorus:
D:1111-1111--------------------------0000--+
A:--------------------4444-4444--1111------+                    
E:----------2222-2222----------------------+

interlude: (not sure about syncopation- listen close)
A:-2//////------------------------------------------------+     
E:--------4///////-------4//////-2//////-4//////-1//////--+     
B:----------------4//////---------------------------------+

song breakdown:
intro x10
pre x1
chorus x4
intro x7
pre x1
chorus x4
interlude x1
chorus x10

Comments