Finger Eleven - Stay And Drown Chords & Tabs

 

Stay And Drown Chords & Tabs

Finger Eleven Chords & Tabs

Version: 2 Type: Bass Tab 0 ratings
1 star 2 stars 3 stars 4 stars 5 stars
comments

Stay And Drown Bass Tab

BASS TAB
ARTIST:FINGER ELEVEN
TITLE:STAY AND DROWN
TABBED BY:THE WARLORD 

INTRO/VERSE:
G:-------------------------------|------------------------------|
D:-------6-6-6-------------------|-------6-6-6------------------|
A:-4-4-4----------2-2-2---4-4-4--|-4-4-4-------2-2-2----4-4-4/--|
E:-------------------------------|------------------------------|

G:--------4-4-4-----------|-----------|--------------+
D:-6-6-6------------------|-----------|--------------+
A:---------------------4--|-7-7-7--6--|--------------+
E:--------------4-4-4-----|-----------|-2-2-2-4-4-4--+
B:---------------------2--|-----------|--------------+
[ Tab from: http://www.guitartabs.cc/tabs/f/finger_eleven/stay_and_drown_btab_ver_2.html ]
chorus:
G:----------------|--------------|------------------|---------------|
D:----------------|--------------|------------------|---------------|
A:----------------|-------------2|------0-----------|--------0------|
E:-2-----------5--|----4----5----|----4------2-2h4--|-----4---------|
B:----------------|-2------------|-2----------------|-2-------------|

my open eyes...
A:--4-4-2-2----2-2-0-0---+

back to verse. theres a few variations:
this--> G:-6-6-6-4---+
	D:--------4--+

and this--> D:-6--4h6-+
	    A:---4----+

chorus is the same, but longer, 
then the bridge:
D:-4-3-2-1-----------+
E:-------------------+ times 4
B:---------4-4-4h5-2-+

then:
E:--2-hold----5-hold-----------|---------------------+
B:---------------------4-hold--|--wait-------4-4h5-2-+

thats it. tricky in some parts, but you can hear all of the stuff.
e-mail me with comments or requests, or death threats or porn.

W.L.
Comments