Finger Eleven - Shudder Chords & Tabs

 

Shudder Chords & Tabs

Finger Eleven Chords & Tabs

Version: 1 Type: Bass Tab 0 ratings
1 star 2 stars 3 stars 4 stars 5 stars
comments

Shudder Bass Tab

Shudder - Finger Eleven

You need a five string for this song, or tune down to B,E,A,D

Verse

G|----------------------------------
D|----------------------------------
A|----------7-6-4-2------(2h4)------
E|----------------------4-----------
B|--2-2-----------------------------

Chorus/First Heavy Part

G|------------------------------------------
D|------------------------------------------
A|----------4----2--------------------------
E|---------------------4--------------------
B|--2-2-------------------------------------

Pre-Interlude
[ Tab from: http://www.guitartabs.cc/tabs/f/finger_eleven/shudder_btab.html ]
G|-----------------------------------
D|-----------------------------------
A|-------------------444--222--------
E|-------22---00---------------------
B|-22--------------------------------

Interlude/Solo

G|--------------------------------------------
D|--------------------------------------------
A|---------4--------------2h4----2------------
E|------------------2h4---------------44444---
B|-2-2---------2------------------------------

That's it, I didn't put them in order or anything but that's what he plays…
I didn't tab this, but I saw it on the requested list so I sent it in.
This guy tabbed it: superintendantgodbotherer@hotmail.com

If you like you can still ask me question, but I'm not taking credit 
for the tab.

Mitch_fraser@hotmail.com
(no caps)


Comments