Finger Eleven - Quicksand Chords & Tabs

 

Quicksand Chords & Tabs

Finger Eleven Chords & Tabs

Version: 3 Type: Bass Tab

Quicksand Bass Tab

   
here's a 5 string tab for Quicksand...awesome song.
questions, comments, email me at "hash-brown@hotmail.com". enjoy!

Intro x4
G ----------------| 
D ----------------| 
A ----5-44-----21-| 
E --------11-1----| 
B /44-------------| 

Verse x7
G ----------------| 
D ----------------| 
A ----333------66-| 
E -------32-------|
B 44--------4-----| 

G ----------------| 
D ----------------| 
A ----333------66*| 
E -------32-------|
B 44--------4-----|

Chorus   
G --------------------------------------------------------------| 
D --------------------------------------------------------------| 
A 111/222----111/2--- 1h2--11/2p0h1-111/222-----11/2---1h2--1/2-| 
E -------222-------------2-----------------222-------------2----| 
B -----------------44---------------------------------4---------| 

Verse x7
G ----------------| 
D ----------------| 
A ----333------66-| 
E -------32-------|
B 44--------4-----| 
[ Tab from: http://www.guitartabs.cc/tabs/f/finger_eleven/quicksand_btab_ver_3.html ]
G ----------------| 
D ----------------| 
A ----333------66*| 
E -------32-------|
B 44--------4-----|
 
Solo
G---------|
D---------|
A-55h6666-|  
E---------|
B---------|
 
G-----------|
D-----------|
A-----------|
E-----------|
B-3333/7777-|

G-----------------------|
D-----------------------|
A-----------------------|
E-----------------------|
B-2*-1*-4444*-2-1-4444*-|x8   Hold until 2:49 and then play the main  

Bridge 
G----------------------------------------22-| 
D----5-----------5--------5---------5-------| 
A-------------------------------------------| 
E-------------------------------------------| 
B-44---2-3-4--44--1/4-44---2-3-4-44---4-----| 

Chorus   
G --------------------------------------------------------------| 
D --------------------------------------------------------------| 
A 111/222----111/2--- 1h2--11/2p0h1-111/222-----11/2---1h2--1/2-| 
E -------222-------------2-----------------222-------------2----| 
B -----------------44---------------------------------4---------|

Outro
G----------------------------------------22-|----| 
D----5-----------5--------5---------5-------|----| 
A-------------------------------------------|----|
E-------------------------------------------|----|
B-44---2-3-4--44--1/4-44---2-3-4-44---4-----|-4*-|