Finger Eleven - Quicksand Chords & Tabs

 

Quicksand Chords & Tabs

Finger Eleven Chords & Tabs

Version: 1 Type: Bass Tab 0 ratings
1 star 2 stars 3 stars 4 stars 5 stars
comments

Quicksand Bass Tab

Quicksand - Finger Eleven

Just tune down to all flats and it's easier (Eb, Ab, Db, Gb)

Intro

G|----------------*--------------------------------------- (you play what's infront
D|----------------*---------------------------------------   of the stars once,then
A|----3--2-2-2----*----------7--5-5-5------3---2-2-2------   play whats after 4
E|-0--------------*-0-0-0--------------3------------------   times threw)

Verse

G|----------------------------------------------
D|----------------------------------------------
A|----------3/4-4-4------------0/7-7--------- (play 8 times)
E|--0-0-0--------------3/0-0------------------


Chorus
Play notes as many times as you like
G|------------------------------------------------
D|------------------------------------------------
A|-------3----------2---------------------------- (play 4 times)
E|---0---------3----------------------------------

*Play verse six times, then play this fill the 7th times threw

Fill
G|------------------------------------
D|------------------------------------
A|---------3/4--4/3--5-7-7-7----------
E|-0-0-0------------------------------

*Play verse 4 times until chorus

*Play chorus 4 times

Interlude 
The interlude has three parts… Here they are.

Part One
[ Tab from: http://www.guitartabs.cc/tabs/f/finger_eleven/quicksand_btab.html ]
G|----------------------------------------------
D|---------------------------------------------- 
A|------7-7/2--4--------------------------------  (play 3 times)
E|--0-------------------3---3-3--3--3-2-2-------


Part Two

G|---------------------------------------------
D|---------------------------------------------
A|--5--5-5--5---4--4-4-4-----------------------  (play 4 times, last time threw
E|-----------------------------0-0-0-0-0-0-----    let the first "0" ring)
                                                                             
Part Three

G|----------------------------------------------------------------- (play times
D|-----------------------------------------------------------------  you playnotes
A|-------11--5--7-------11----5--7-----11--5-7-------------11/14---  as many times as
E|--0----------------0---------------0----------------0------------  you like, it)
 
Changes)

*Play chorus 4 times

*Play part three of the interlude 2 times

That's it. It's a pretty easy song to play, but it took a lot of time and effort to tab it, specially adding and counting in the fill… 

Any questions, comments, or corrections (although I think this is just about perfect) email me at 
Mitch_fraser@hotmail.com (no caps if it matters)

Comments