Finger Eleven - One Thing Chords & Tabs

 

One Thing Chords & Tabs

Finger Eleven Chords & Tabs

Version: 6 Type: Tab 0 ratings
1 star 2 stars 3 stars 4 stars 5 stars
comments

One Thing Tab

   
Author/Artist: Finger Eleven
Title: One Thing
Album: self titled
Transcribed by: Dixon2
Email: Keenan_dixon@hotmail.com 


I was looking at the First tab of One Thing and it was close but this 
sounds alot better :)
Enjoy!


Db tuning (Db, Ab, Db, Gb, Bb, Eb)

Intro/Verse
|------------------------------9------9---------
|--9------9-------6-----6--------------------9--
|-----8------8------8-----8-------8------8------
|--6----6------6--6--6-----6---6---6------6--6--
|-----------------------------------------------
|-----------------------------------------------
[ Tab from: http://www.guitartabs.cc/tabs/f/finger_eleven/one_thing_tab_ver_6.html ]
Chorus - Guitar 1
|-------------------------------------------
|------9---------------------------9-------
|------8---------------------------6--------
|------6---------------------------x--------
|------0---------------------------8--------
|-------------------------------------------
 If I traded it all.......... for one thing

Chorus - Guitar 2
|-------------------------------------------
|------9-----------------------------------
|------8---------------------------6--------
|------6---------------------------6--------
|------6---------------------------4--------
|------6---------------------------0--------
 If I traded it all.......... for one thing

Well that's basically it.  Only 2 main parts to this song, all repeated,
but sounds really nice.
Comments