Finger Eleven - One Thing Chords & Tabs

 

One Thing Chords & Tabs

Finger Eleven Chords & Tabs

Version: 3 Type: Tab 0 ratings
1 star 2 stars 3 stars 4 stars 5 stars
comments

One Thing Tab

   
This is an awsome Tune! I found this tab in the Forum so 
I'm not taking credit for tabing it.I'm just placing 
it in here so it's easy to find. Just play around with this 
and listen to the CD it's almost exact. 

Remember, "IF YOU ALWAYS DO WHAT YOU'VE ALWAYS DONE, YOU'LL ALWAYS
GET WHAT YOU'VE ALWAYS GOT."  



Tuning: Db Ab Db Gb Bb Eb 


Intro/Verse: 
-|------------------------------10-----10----------|- 
-|--10-----10------7-----7---------7------7----10--|- 
-|-----9------9------9-----9---------9------9------|- 
-|-------7------7------7-----7---------------------|- 4x 
-|---0------------------------------------------0--|- 
-|-------------------------------------------------|- 
[ Tab from: http://www.guitartabs.cc/tabs/f/finger_eleven/one_thing_tab_ver_3.html ]
Chorus: 
-|--------------|- -|--------------------|-      -|------------|- 
-|----10101010--|- -|-----10-1010--1010--|-      -|--10--1010--|- 
-|-----9-9-9-9--|- -|------7--7-7---7-7--|- twice-|---7---7-7--|- 
-|--7--7-7-7-7--|- 4x -----0--0-0---0-0--|- then -|---0---9-9--|- 
-|--7--7-7-7-7--|- -|------9--9-9---9-9--|-      -|---9---9-9--|- 
-|--7--7-7-7-7--|- -|--0-----------------|-      -|------------|- 

There's one note you hear played in the 
background occasionally during the chorus... 

-|--21br--|- 
-|--------|- 
-|--------|- 
-|--------|- 
-|--------|- 
-|--------|- 


The strumming changes occasionally, but that's it. 
The song structure goes like this: 


Intro 4x 
Verse 4x 
Chorus 2x 
Verse 4x 
Chorus 4X 
Verse 4x 
Chorus 6x 

Then it fades out. 
Comments