Finger Eleven - One Thing Chords & Tabs

 

One Thing Chords & Tabs

Finger Eleven Chords & Tabs

Version: 2 Type: Tab 2 ratings
1 star 2 stars 3 stars 4 stars 5 stars
comments

One Thing Tab

   
The way i play it might not be perfect but it is played on
> standard tuning and it still sounds great.  Here it is.
>
> capo on 1st fret
>  
  There are two ways of playing this that i found, one i foudn and one
  i saw on anothe rtab i like the first one better.
> intro and verses
 
 e----------------------------9-----9------------ 
 b----9-----9-----6-----6----------------9------- 
 g------8-----8-----8-----8-----8----8----------- 
 d----6---6-----6-6---6-----6-6---6----6-6------- 
 a----------------------------------------------- 
 E----------------------------------------------- 


                    OR                  

[ Tab from: http://www.guitartabs.cc/tabs/f/finger_eleven/one_thing_tab_ver_2.html ]
 e---3-------3-------0------0-------8-------8--------3---
> b------3-------3-------3------3-------3-------3---------
> g---------0-------0-------0------0-------0-------0------
> d-------------------------------------------------------
> a-------------------------------------------------------
> E---3---------------3--------------3-----------------3--
>
> 
chorus is three chords
> i dont know the names so ill call them G1, G2 and G3
>
> G1 - 320033
> G2 - 330013
> G3 - 330003
>
> you can figure out how they are played, the G3 is played right after the
G2
> and it is only strummed like once or twice just to join the G1 and G2
> chords,  have fun with it, its a great song!

  Chris Edwards, cbe_4@hotmail.com
Comments