Finger Eleven - One Thing Chords & Tabs

 

One Thing Chords & Tabs

Finger Eleven Chords & Tabs

Version: 1 Type: Bass Tab 0 ratings
1 star 2 stars 3 stars 4 stars 5 stars
comments

One Thing Bass Tab

-Verse 1-
G|-----------------------------|
D|-----------------------------|
A|-----------------------------|
D|-7~-----7~-----7~-----7~-----|

-Chorus 1-
G|-----------------------------------------------------|
D|-----------------------------------------------------|
A|-------------------------------------------------5\--|
D|-6/7---6/7---6/7---6/7---6/7---6/7---6/7---6/7-----\-|

G|--------------------------------------------------|
D|--------------------------------------------------|
A|-----------------------------------------------10-|
D|-6/7---6/7---6/7---6/7---6/7---6/7---6/7---12-----|

-Verse 2-
G|-----------------------------------------------|
D|-----------------------------------------------|
A|-----------------------------------------------|
D|-6/7---6/7---6/7---6/7---6/7---6/7---6/7---6/7-|

-Chorus 2-
G|-----------------------------------------------------|
D|-----------------------------------------------------|
A|-----------------------------------------------------|
D|-6/7---6/7---6/7---6/7---6/7---6/7---6/7---6/7---0-5-|
[ Tab from: http://www.guitartabs.cc/tabs/f/finger_eleven/one_thing_btab.html ]
G|-----------------------------------------------------------|
D|-----------------------------------------------------------|
A|---------------------------------------------/10--9-10-12\-|
D|-6/7---6/7---6/7---6/7---6/7---6/7---6/7---7/--------------|

G|-----------------------------------------------------------|
D|-----------------------------------------------------------|
A|-----------------------------------------------------------|
D|-6/7---6/7---6/7---6/7---6/7---6/7---7/12--12-12-14-12-14\-|

-Verse 3-
G|----------------------------------------------------------|
D|----------------------------------------------------------|
A|----------------------------------------------------------|
D|-7~-----7~-----7~-----7~------7~-----7~-----7~-----7~-----|

G|----------------------|
D|----------------------|
A|----------------------|
D|-19\7~-----7~--(REST)-|

-Outro-
G|---------------------------------------------------------------|
D|---------------------------------------------------------------|
A|---/12-10-12---7---------12~-10-12\---------------10-9-10-12\--|
D|-7/---------------5-7-7------------\7--7-12/14\7-------------\-|

G|----------------------------------------------------------9\-|
D|------------------------------------------------------7-9----|
A|---/10-12-12-6/7---10-12-12------------------------/7--------|
D|-7/--------------7----------12\7-7-5-7--5-6-7--7-7\----------|
Comments